El Embrujo, Americo (acordes)

Autor: pablorojas4 | 27512 visualizaciones

acdmfgm


INTRO:
          Dm
e|---------10-10-12-13--------10-10-12-13--------10-10-12-13-------------
b|-10-10-10-----------10-10-10-----------10-10-10------------------------
G|-----------------------------------------------------------------------

e|--------10--10--10--10--15-17-18-    <==[continua]
b|10-10-10--10--10--10--10---------
c|---------------------------------
          Gm
e|---------15-15-17-18--------15-15-17-18--------15-15-17-18-------------
b|-15-15-15-----------15-15-15-----------15-15-15------------------------
G|-----------------------------------------------------------------------

a|--------15--15--15--15-12-13-15-    <==[continua]
b|15-15-15--15--15--15------------
c|--------------------------------

          C                                                   F
e|---------12-12-13-15--------12-12-13-15--------12-12-13-15-------------
b|-13-13-13-----------13-13-13-----------13-13-13------------------------
G|-----------------------------------------------------------------------

e|--12-12-12--18-17-17-17-17-17-17-18-17-17-17-18-17-17-17-
b|13-13--13-13---------------------------------------------
c|---------------------------------------------------------

Se debe repetir dos veces, tiene que escuchar la cancion para poder tokarlo bien.

Ahora vamos con los acordes...

Dm                                                        Gm
Hoy igual que ayer estoy aqui frente al mar esperando por ti
                                             Dm
no tardes mas por favor que me desespero sin ti
                                         A 
sabes bien corazon, lo que significas en mi.

Dm                                                  Gm
Que tambien por ti comentaran que vivo pendiente de ti
                                                        Dm
y si no estas no soy feliz sabes bien que significas en Mi 
                                       A 
corazon ven a mi, yo me desespero por tiii!.

Dm                        Gm
Dicen que como te quiero tanto
                     C
yo que tuve tantos amores
                    F    A          Dm
seguro me has embrujado ooooo! que importa.

CORO:
        F                                    Gm
Si es asi dejalo ahi hechizado encantado por ti,
                                         Dm
que mas da, soy feliz no no rompas ese embrujo mujer
 A                         Dm
dejame por siempre junto a tii!.
        F                                    Gm
Si es asi dejalo ahi hechizado encantado por ti,
                                         Dm
que mas da, soy feliz no no rompas ese embrujo mujer
 A                        Dm
dejame por siempre junto a ti.

Es una cancion que esta de moda aquí en chile... Un saludo a todos los chilenos.





Calificar esta versión:
Aviso: Este fichero es trabajo propio de su transcriptor y representa su interpretación personal de la canción. El material contenido en esta página es para exclusivo uso privado, por lo que se prohibe su reproducción o retransmisión, así como su uso para fines comerciales.