El Andariego, Alvaro Carrillo (tablatura)

Autor: lalo1311 | 30236 visualizaciones



esta es la tablatura del intro de uno de los mas grandes exitos
del maestro Alvaro carrillo

6--------------------------------    
5--------------------------------  
4-------------------------------- *2
3--------------------------------     
2-4-4-4-4-5-7-6-7-6-7-6-7-8-8-7-5    
1-2-2-2-2-3-5-4-5-4-5-4-5-7-7-5-     


6-----------------------------------
5-----------------------------------
4-----------------------------------
3-----------------------------------
2-9-9-9-9-10-12-11-12-11-12-13-12-10
1-7-7-7-7--8-10--9-10--9-10-12-10--8 



6----------------------------------------------------------12
5----------------------------------------------------10-10---
4------------------------------------------------9-9---------
3--------------------------------------------9-9-------------
2--------------12-8-10-12-10-8-7-7-8-10--8-7-----------------
1-8-10-12-10-8-----------------------------------------------

esta parte es mas rapida

6----------------------------------------------------------------
5----------------------------------------------------------------
4----------------------------------------------------------------
3----------------------------------------------------------------
2-11-12---11-12---11-12----11-12--11-12--11-12---11-12---11-12---
1------14------14-------14------14------15------15-------15----15

6------------------------------------------------------
5------------------------------------------------------
4------------------------------------------------------
3------------------------------------------------------
2-11-12----11-12----11-12----11-12----11-12------------
1-------14-------14-------14-------14-------15-15-14-15





Calificar esta versión:
Aviso: Este fichero es trabajo propio de su transcriptor y representa su interpretación personal de la canción. El material contenido en esta página es para exclusivo uso privado, por lo que se prohibe su reproducción o retransmisión, así como su uso para fines comerciales.