Del Colimba, Almafuerte (tablatura)

Autor: Anónimo | 36903 visualizaciones



Bueno... otra tablatura mas... esta es la vercion de almafuerte
del colimba, aca van a encontrar banda de errores seguramente
en el solo porq es re jodido, pero en lo demas supongo que esta
bien, dense una vuelta por sentir indiano y tu eres su seguridad
cualquier cosa:
metalero_nqn@hotmail.com
Ha! otra cosa, es posible que encuentren errores tambien en estas
tres tablaturas, porque las transcribi y saque con una acustica,
asique cualquier cosa mandenme la correccion.

Intro
|-------3---3-------------0-1--3-----------3---3-----------------------
|----1---0----0-------1------1---------1-----0---0-----------------1---
|--0---0--------0-------------2------0---0---------0----1-----2p0----0-
|-----------------------3---------------------------------3------------
|3---------3--------3--------------3-------------------3---------------
|-----------------1----------------------------------1------1-----1----

Mirando el sol, desde un cuartel...
|-------3--3---------0-1--3----------3---3-------------1------------|
|---1------------1------1--------1-----1---1-------1-----1----------|
|-0---0------------------2-----0---0---------0------------2---------|
|------------------3---------------------------------3------3-------|
|3--------3-----3------------3----------------3--3------------------|
|-------------1---------------------------------1-------------------|

Se va el domingo y yo, maldigo mi suerte...
|-3------------------0---3----3--------3-----------0--3/5-----------|
|-3---------3-----1----1------3----------3-----1-----1--------------|
|-4-----4--------2------------4-----4------------2------------------|
|-5-5-----5-----2----------2--5--5----5------2----------------------|
|-5---5-------0---------------5----5-------0------------------------|
|-3---------------------------3-------------------------------------|

Fue por sorteo pibe...
|-------1---1---------1----1---------------|
|---3-----3---3--------1-----1-------------|
|-2---2---------2--------------------------|
|0-----------------------------5---5-------|
|------------------3-----------5---5-------|
|------------------------------3---3-------|

    En un cuartel               en un cuartel
|----------------------------------------------------------|
|----------------------------------------------------------|
|-//2-------5-5-----------------2-------5-7----------------|
|-//2--2-2--5-5------5----------2--2-2--5-7----------------|
|-//0--0-0--3-5--5-7---7-5(7)5--0--0-0--3-5--5-7-5-----7-5-|
|------...-------------------------...-------------8-5-----|
  En un cuartel                en un cuartel
|----------------------------------------------------------|
|----------------------------------------------------------|
|-2-------5-7------------------2-------5-5-----------------|
|-2--2-2--5-7------5-----------2--2-2--5-5-----------------|
|-0--0-0--3-5--5-7---7-5(7*)5--0--0-0--3-5--5-7-5-----7-8--|
|----...--------------------------...-------------8-5------|

  G      F             G                        G      F      G    F  G
|-3------1-------------3------------------------3------1----------------
|-3------1-------------3----/6-5-3-1/3-1--------3------1----------------
|-4------2-------------4------------------------4------2------4-4--2--4-
|-5------3------5-4-2--5-----------------5-4-2--5------3------5-5--3--5-
|-5------3------3-2-0--5-----------------3-2-0--5------3------5-5--3--5-
|-3------1-------------3------------------------3------1------3-3--1--3-

  En un cuartel                 en un cuartel
|--------------------------------------------------------------|
|--------------------------------------------------------------|
|-2-------5-7-------------------2-------5-7--------------------|
|-2--2-2--5-7------7------------2-------5-7--------------------|
|-0--0-0--3-5--5-7---7-5-7-5*---0--0-0--3-5--5-7-5-----7-5/----|
|----...-------------------------------------------8-5---------|

  En un cuartel                 en un cuartel
|--------------------------------------------------------------|
|--------------------------------------------------------------|
|-2-------5-7-------------------2-------5-7--------------------|
|-2--2-2--5-7------7------------2-------5-7--------------------|
|-0--0-0--3-5--5-7---7-5-7-5----0--0-0--3-5--5-7-5-----7-5/----|
|----...-------------------------------------------8-5---------|


  G      F             G                        G      F      G    F  G
|-3------1----------3-------1--------------3--/15-15-15*--1----------------
|-3------1----------3-------1--------------3--------------1----------------
|-4------2----------4-------2--------------4--------------2------4-4--2--4-
|-5------3---5-4-2--5-------3-------5-4-2--5--------------3------5-5--3--5-
|-5------3---3-2-0--5-------3-------3-2-0--5--------------3------5-5--3--5-
|-3------1----------3-------1--------------3--------------1------3-3--1--3-

Solo:
|------------------------------------------|
|------------------------------------------|
|------------9-12~~-12(14)-9h12-12(14)12---|
|-/10--10-12-------------------------------|
|------------------------------------------|
|------------------------------------------|

|------------------------------------------------------------------------
|------------------------------------------------------------------------
|--16h17p16p14p12-14p12p10p9-10p9----------------------------------------
|--------------------------------12p10-10p9------------------------12p10-
|------------------------------------------12----------------10--12------
|--------------------------------------------15p13p12p10--8---8----------

|---15---17b-12h17p12-15--/17p15-/17h20p17p15--
|-15--15---------------------------------------
|----------------------------------------------
|----------------------------------------------
|----------------------------------------------
|----------------------------------------------
.......................................................
|/12h15h17h20p17p15h17p15p13-15p13p12p10-10h13p12p10p8/-----|
|-----------------------------------------------------------|
|-----------------------------------------------------------|
|-----------------------------------------------------------|
|-----------------------------------------------------------|
|-----------------------------------------------------------|

|-----------------12h13h15-17h19-20(22)-20-17-15-17-22-20---|
|---------12h14h15------------------------------------------|
|-------14--------------------------------------------------|
|-----12----------------------------------------------------|
|---12------------------------------------------------------|
|-10--------------------------------------------------------|
...
|/12........----------------------------------------
|---15p14p12............----------------------------
|-----------14p12p11p9p7-..........-----------------
|------------------------10p9p7p5p3-.....-----------
|-----------------------------------7p5p3-.........-
|-----------------------------------------7p5p3p1p0-
                                               ...........
|-----------------------------------...........12h13h15h17-22*-17~-|
|----------------------------.......10h12h14h15--------------------|
|---------------.............9h11h12-------------------------------|
|-----.........-3h5h7h9h10h12--------------------------------------|
|.....0h2h3h5h7----------------------------------------------------|
|0h1h3-------------------------------------------------------------|

  En un cuartel                 en un cuartel
|--------------------------------------------------------------|
|--------------------------------------------------------------|
|-2-------5-7-------------------2-------5-7--------------------|
|-2--2-2--5-7------7------------2--2-2--5-7--------------------|
|-0--0-0--3-5--5-7---7-5-7-5//--0--0-0--3-5--5-7-5-----7-5/----|
|----...-------------------------------------------8-5---------|

  En un cuartel
|------------------------------
|------------------------------
|-2-------5-7------------------
|-2--2-2--5-7------7-----------
|-0--0-0--3-5--5-7---7-5-7-5---
|----...-----------------------

|-3------1---------3------1------3-----------------------------------
|-3------1---------3------1------3-----------------------------------
|-4------2---------4------2------4----2--4---2-------5-7-------------
|-5------3---5-4-2-5------3------5----3--5---2--2-2--5-7----7--------
|-5------3---3-2-0-5------3------5----3--5---0--0-0--3-5-5-7-7-5-7*5-
|-3------1---------3------1------3----1--3------...------------------

|--------------------------------------------------------
|--------------------------------------------------------
|2-------5-7-----------------2-------5-7-----------------
|2--2-2--5-7-----------------2--2-2--5-7------7----------
|0--0-0--3-5-5-7-5-----7-5---0--0-0--3-5--5-7---7-5-7-5*-
|---...------------8-5----------...----------------------

|----------------------------------------------------------
|----------------------------------------------------------
|-2-------5-7-----------------2-------5-7~~~-------5--2/---
|-2--2-2--5-7-----------------2--2-2--5-7~~~-------5--2/---
|-0--0-0--3-5--5-7-5-----7-5--0--0-0--3-5~~~-------3--0/---
|----...-------------8-5---------...-----------------------

Bueno fleco master... este te lo dedico a vos tambien
y a los forros hijos de puta que nunca me prestaron una
guitarra!!





Calificar esta versión:
Aviso: Este fichero es trabajo propio de su transcriptor y representa su interpretación personal de la canción. El material contenido en esta página es para exclusivo uso privado, por lo que se prohibe su reproducción o retransmisión, así como su uso para fines comerciales.