De Un Mañana Bajo Tierra, Almafuerte (tablatura)

Autor: Anónimo | 20615 visualizaciones



Intro.

--------------------------Libertaddd!!!!!
-------------------------------PM...........
e|------------------------0-0-0-------------0-0-0----|
B|------------------------x-x-x-------------x-x-x----|
G|------------------------4-4-3-------------4-3-3----|
D|-------6-5-------9-8-5--x-x-x-------------x-x-x----|
A|-------4-3-------7-6-3--4-4-4-4-4-4-4-4-4-4-4-4----|
E|-2-4-5-----5-7-8-----------------------------------|

(con los dedos) Esto es bien a los pedos(solo la 2da vez en intro)

E*---------------------------------------------14-16(12-14)-*
B*-(5-4----)------------------------------14-16-------------*
G*-(----4-6)----------------------13-14-16------------------*
D*------------------------13-14-16--------------------------*
A*--0~~~~~~~------12-14-16----------------------------------*
E*----------------------------------------------------------*

esto la hace las 2das veces

E*----------------
B*-(5-4----)------
G*-(----4-2)------
D*----------------
A*--0~~~~~~~------
E*----------------


--Quiero que se corra...
se repite varias veces esta fig(la del PM del principio)
PM................ ----....-- .... -....
e|-------------------------------------------|
B|-------------------5------4------3----2----|
G|-------------------4------4------2----2----|
D|-------------------------------------------|
A|-------------------------------------------*
E|-02-2-2-2-02-2-2-2---2222---2222--2222-----|

Fijemos fecha y hora.....
los mismo que antes con el PM del pincipio
----PM................ ?todavia no saque esto?
-----------------------hace algo en B sino que queda!
e*----------------------------------*
b*-------------------9--7~~~~~?--?--*
g*-------------------9--7~~~~~?--?--*
d*-0h2------0h2---------------------*
a*-0h2------0h2---------------------*
e*----0-0-0----0-0-0----------------*

--------------------------Libertaddd!!!!!
-------------------------------PM...........
e|------------------------0-0-0-------------0-0-0----|
B|------------------------x-x-x-------------x-x-x----|
G|------------------------4-4-3-------------4-3-3----|
D|-------6-5-------9-8-5--x-x-x-------------x-x-x----|
A|-------4-3-------7-6-3--4-4-4-4-4-4-4-4-4-4-4-4----|
E|-2-4-5-----5-7-8-----------------------------------|


(con los dedos) Esto es bien a los pedos (solo la 2da vez)
E*---------------------------------------------14-16(12-14--)*
B*-(5-4----)------------------------------14-16-----(-----17)*
G*-(----4-6)----------------------13-14-16-------------------*
D*------------------------13-14-16---------------------------*
A*--0~~~~~~~------12-14-16-----------------------------------*
E*-----------------------------------------------------------*
------------------los acordes de esto son F#,E,C#,C(D,E,F#)
------------------obvio todos quintas y (solo las ultimas veces)

Bue viene otra estrofa y despues....


Sé que se opondran los dueños...
e|--------------------------------------------------|
B|--------------------------------------------------| Se Repite
G|--------------------------------------------------* DOS
D|-------6-5--------6-5------------9-8-------9-8-11-* VECES!!!!
A|-------4-3--------4-3------------7-6-------7-6-9--*
E|-2-4-5------2-4-5-----4-5--5-7-8-----5-7-8--------*

SOLO QUE NO SAQUE TODAVIA
con base de estos acordes
C#,A,E.B X2 FIJATE LOS TIEMPOS DE C/ACORDE SON 5TAS)
G#,A,C#,E,B

ULTIMA ESTROFA IGUAL QUE SIEMPRE

y el final igual que intro pero cuatro veces, en vez de dos o sea
que seria dos veces la intro, pero lo que se hacia la segunda vez
el la subida a los pedos se hace solo en la cuarta!!!

Leandro de Malceva

AGUANTE EL HEAVY!!!!!!!

_______________________
-lea_x_eva@hotmail.com 
--Leandro de Malceva.

Fuente original: LaCuerda
Colaborador original: el capo del sur J. Núñez [jorge_cipo10@hotmail.com]





Calificar esta versión:
Aviso: Este fichero es trabajo propio de su transcriptor y representa su interpretación personal de la canción. El material contenido en esta página es para exclusivo uso privado, por lo que se prohibe su reproducción o retransmisión, así como su uso para fines comerciales.