De La Escuelita, Almafuerte (acordes)

Autor: Anónimo | 33971 visualizaciones

dosos5do5ffasos5lala5mi5re5si5solsol5


Para la escuela cientifica basilio [para los que no saben es una
religión que cree en el reencarne]
En el disco la guitarra se encuentra 20hz aprox mas alta que
La habitual afinación
Los acordes que tienen un - es por que hay que tocarlos
una sola vez.ej do5-
Algunos acordes aclaro [2t] significa hacerlos en segundo traste]

Intro Do5-Si5-La5-   Fa#5-Mi5-Fa#5-Sol5-Fa#5-Mi5-Fa#5-Sol5-Fa#5- x3
      Do5-Si5-La5-   Fa#5-Mi5-Do5-Do5-Si5-La5-Si5-Fa#5-

Fa#5[2traste]
Apenas llega la noche
La [2trs]
Se vienen todos conmigo
Fa#5
Brillan para conversarme
(M(RDo#5[2trs]               Re5[5t] -Do#5[4t]-Fa#5-
Y yo con ellos brillo también

Intro Do5-Si5-La5-   Fa#5-Mi5-Fa#5-Sol5-Fa#5-Mi5-Fa#5-Sol5-Fa#5-
      Do5-Si5-La5-   Fa#5-Mi5-Do5-Do5-Si5-La5-Si5-Fa#5-

Fa#5
Estan del otro lado
La5
Son los muertos mios
(FMi5)                 Mi5[2t]Re5-5t]-Do#5-Do5-Si5-
A ellos honro cantando agradecido

(S(LSol[2t]        La[2t] Sol[abierto]
Todos juntos bajaran  Al pie de la cruz
La           Re5-Mi5-[7t]
En la escuelita

Fa#5[riff]
De techo bajo
La                    Mi5
Pintadita de blanco
Fa#5[riff]
Que guarda el barrio escondido
La                     Mi5
Cruzando el barrancio
Fa#5[riff2]
Como tomando distancia
(LMi5                            Mi5[2t]
De lo que alli pueda acontecer
(RSi5                      Si5[2t]
Se confirma que ignorancia
(RMi5                            Mi5[7t] Fa#5-
Es la enfermedad que al mundo apesta

Solo sobre intro y repite todo luego
Solo sobre Estan del otro…/ Todos juntos….
De techo ….Como tomando ….
Fin: Fa#5

Riff:
1---------------------------------------------------------
 ---------------7--7------5-5--2-2------------------5-2--5
 ---------------6--6------4-4--2-2------------------4-2--4
 ---------------------------------------------------------
 ---------------------------------------------------------
6-fa#5------------------------------La5-----------Mi5-----
      De techo bajo                    Pintadita de blanco

Riff2:
1------------------------------------------------------------
 -------------------7--7----5-5---2-2------------------------
 -------------------6--6----4-4---2-2------------------------
 ------------------------------------------------------------
 ------------------------------------------------------------
6-fa#5-----------------------------------La5-----------Mi5---
    Como tomando distancia                 De lo que alli ……

chulados@hotmail.com
www.guitarra.galeon.com
http://clasesdeguitarracaballito.blogspot.com/





Calificar esta versión:
Aviso: Este fichero es trabajo propio de su transcriptor y representa su interpretación personal de la canción. El material contenido en esta página es para exclusivo uso privado, por lo que se prohibe su reproducción o retransmisión, así como su uso para fines comerciales.