Amanecer En Open Door, Almafuerte (acordes)

Autor: Anónimo | 15251 visualizaciones

aa5bcd5emfg


 intro: Em  D5  A5 }4 veces
 
Riff: [2 veces]
E-----------------------------------------
B---5-------------------------------------
G-----7-5------------------7--------------
D---------7-5--------5-6-7---7-6-5---5----
A-7-----------7----7---------------7------
E-----------------------------------------
 Em                            D5-A5
  Tengo un amigo, tengo un amigo 
 Em                            D5-A5
  Tengo un amigo, tengo un amigo 
 Em                            D5-A5
  Tengo un amigo, tengo un amigo
 Em                            D5-A5
  Tengo un amigo, tengo un amigo.
 
Riff: [2 veces]
E-----------------------------------------
B---5-------------------------------------
G-----7-5------------------7--------------
D---------7-5--------5-6-7---7-6-5---5----
A-7-----------7----7---------------7------
E-----------------------------------------

 Em                            D5-A5
  Tengo un amigo, tengo un amigo 
 Em                            D5-A5
  Tengo un amigo, tengo un amigo 
 Em                            D5-A5
  Tengo un amigo, tengo un amigo
 Em                            D5-A5
  Tengo un amigo, tengo un amigo. 
 
G-Em    G-Em        G-Em    G-Em
  Amanecer en Open Door
G-Em    G-Em        G-Em    G-Em  
  Legal crusificción del ser
 Em        C
  Sin tener familiares
 B             A 
  que vengan a reclamarme
 Em           C
  Sin visitas dice el doctor
     B           A 
  es terminal a lo pidool
  G           F             Em
  Solo estoy, viendo amanecer

 G-Em }8 veces   Em

 Em                            D5-A5
  Tengo un amigo, tengo un amigo 
 Em                            D5-A5
  Tengo un amigo, tengo un amigo 
 Em                            D5-A5
  Tengo un amigo, tengo un amigo
 Em                            D5-A5
  Tengo un amigo, tengo un amigo.

Riff: [2 veces]
E-----------------------------------------
B---5-------------------------------------
G-----7-5------------------7--------------
D---------7-5--------5-6-7---7-6-5---5----
A-7-----------7----7---------------7------
E-----------------------------------------

G-Em    G-Em        G-Em    G-Em
  Amanecer en Open Door
G-Em    G-Em        G-Em    G-Em  
  Legal crusificción del ser
 Em        C
  Sin tener familiares
 B             A 
  que vengan a reclamarme
 Em           C
  Sin visitas dice el doctor
     B           A 
  es terminal a lo pidool
  G           F             Em
  Solo estoy, viendo amanecer.

Fuente original: LaCuerda
Colaborador original: Gabriel paredes [gabi_piojoso_87@hotmail.com]





Calificar esta versión:
Aviso: Este fichero es trabajo propio de su transcriptor y representa su interpretación personal de la canción. El material contenido en esta página es para exclusivo uso privado, por lo que se prohibe su reproducción o retransmisión, así como su uso para fines comerciales.