Almafuerte - Solo, Almafuerte (tablatura)

Autor: gaby-argento | 25662 visualizaciones



para la gente qe le copa almafuerte

intro del solo:
e|------------------------------------|------------------------------------|
B|------------------------------------|-------------------------
-----------|
G|---9p8------9p8---------------------|---9p8------9p8---------------------|
D|-------9-8~-----9-7-7~--------------|-------9-8~-----9-7-7~--------------|
A|---------------------------10---9~--|---------------------------10---9~--|
E|------------------------------------|------------------------------------|
 |                                    |                                    |
e|------------------------------------|------------------------------------|
B|------------------------------------|------------------------------------|
G|------------------------------------|------------------------------------|
D|---9-9------9-9------------5----4---|---9-9------9-9------------5----3---|
A|---7-7------7-7------------3----2---|---7-7------7-7------------3----1---|
E|------------------------------------|------------------------------------|


 (aca cambia de distorsion)
e|--------------------------------------------------------------------------|
B|--------------------------------------------------------------------------|
G|-2---2--4--5/9~9~9~---------0--2--4/7~7~7~--------------------------------|
D|-2-------------7-7--------------------5-5----------3--5--7/10~10~--10-9---|
A|-0----------------------5----------------------3---------------8----8-8---|
E|------------------------3----------------------1--------------------------|

e|--------------------------------------------------------|
B|--------------------------------------------------------|
G|--------------------------------------------------------|
D|---------5---------7~----------------8---------7~-------|
A|-0-0-0-0-3-0-0-0-0-5~--------0-0-0-0-6-0-0-0-0-5~-------|
E|--------------------------------------------------------|
   *******   *******           *******   *******

e|--------------------------------------------------------------------------|
B|--------------------------------------------------------------------------|
G|-2---2--4--5/9~9~\7\5/9~----0--2--4/7~7\5\4/5~----------------------------|
D|-2-------------7----------------------5------------3--5--7/10~10~~-10-9~--|
A|-0----------------------5----------------------3---------------8----------|
E|------------------------3----------------------1--------------------------|

e|--------------------------------------------------------------------------|
B|--------------------------------------------------------------------------|
G|--5-----------------------------------------------------------------------|
D|--x--9--7--7h9p7~--6~\----------10---10--------------12---12--------------|
A|--5-----7------------------------8----8--------------10---10--------------|
E|--------------------------------------------------------------------------|
   (&) ese acorde es un D7, el Tano lo toca asi: D|--10--
       pero es mucho mas jodido y suena igual.   A|--5---

e|--------------------------------------------------------|
B|--------------------------------------------------------|
G|--------------------------------------------------------|
D|---------5---------7~----------------8---------7~-------|
A|-0-0-0-0-3-0-0-0-0-5~--------0-0-0-0-6-0-0-0-0-5~-------|
E|--------------------------------------------------------|
   *******   *******           *******   *******


Ahora se viene EL solo. No es imposible, pero requiere
de mucha practica. Recomiendo practicarlo despacio y despues ir aumentando
la velocidad, tratando de mantener siempre una 'limpieza' en lo que se toca.
Bueno ahy les ba.
Solo:
e|-----------------------------------------------------------12-------------|
B|-/5b6r5b6r5b6//9~~-9-10-12-9-10-12-13-10-12-13-15-12-13-15----13-15-12-13-|
G|--------------------------------------------------------------------------|
D|--------------------------------------------------------------------------|
A|--------------------------------------------------------------------------|
E|--------------------------------------------------------------------------|

e|--------------------------------/12~---------------12b13~~~-|
B|--------------------------------------12-10p9---------------|
G|--10-13-9-10p9----9~~-------------------------10~-----------|
D|---------------12-------------------------------------------|
A|------------------------------------------------------------|
E|------------------------------------------------------------|

e|--/15-13-12-10------------------------------------------------------------|
B|---------------13-12-10---------------------------------------------------|
G|------------------------13-10-9---------------------------------14-16-17--|
D|--------------------------------12-10-9----------------12-14-15-----------|
A|----------------------------------------12-11-12-14-15--------------------|
E|--------------------------------------------------------------------------|

e|----------17-19-20-17-22b24~~~--19--21b22~--19--20b21~~~r--|
B|-15-17-18--------------------------------------------------|
G|-----------------------------------------------------------|
D|-----------------------------------------------------------|
A|-----------------------------------------------------------|
E|-----------------------------------------------------------|

(a este cachito le pone un delay mas largo y presente)
e|---20-18-17------------------------------------|
B|-------------20-19-17-------17-19b21-19b21~~~--|
G|----------------------19-17--------------------|
D|-----------------------------------------------|
A|-----------------------------------------------|
E|-----------------------------------------------|

Esta parte es bastante jodida, ba TODO LIGADO, sin pua. Para que te salga
limpio recomiendo tapar la 1° y la 3° con los dedos o dedo y pua
de la mano derecha.
e|--------------------------------------------------------------------------|
B|--15-0-13-0-12-0-13-0-15-0-13-0-12-0-10-0-12-0-10-0-9-0-10-0-12-0-10-0-12-|
G|--------------------------------------------------------------------------|
D|--------------------------------------------------------------------------|
A|--------------------------------------------------------------------------|
E|--------------------------------------------------------------------------|

e|--------------------------------------------|
B|-0-13-0-15-0-13-0-15-0-17-18p17p15h17~~~~---|Fin solo.
G|--------------------------------------------|
D|--------------------------------------------|
A|--------------------------------------------|
E|--------------------------------------------|

e|----------------------------------|----------------------------------|
B|----------------------------------|----------------------------------|
G|-14-----12----11----9-------------|----------------------------------|
D|-14-----12----11----9-------------|--7----11----7-----9~-------------|
A|-12-----10----9-----7-------------|--5----9-----5-----7~-------------|
E|----------------------------------|----------------------------------|

e|----------------------------------|----------------------------------|
B|----------------------------------|----------------------------------|
G|/14-----12----11----9-------------|----------------------------------|
D|/14-----12----11----9-------------|--7----11----7-----5~-------------|
A|/12-----10----9-----7-------------|--5----9-----5-----3~-------------|
E|----------------------------------|----------------------------------|


se lo dedico a mi eamano walrter

gaby y bren....





Calificar esta versión:
Aviso: Este fichero es trabajo propio de su transcriptor y representa su interpretación personal de la canción. El material contenido en esta página es para exclusivo uso privado, por lo que se prohibe su reproducción o retransmisión, así como su uso para fines comerciales.