Alli En San Juan, Almafuerte (tablatura)

Autor: Anónimo | 38737 visualizaciones



intro:
e------------------------------------------------------------------
b------------------------------------------------------------------  Antes de repetir
g------------------------------------------------------------------  va un G5by un F5
d------------------------------------------------------------------x2
a------------------------5-----------------7-----------------------
E-7-7-7-7-5-6-7-7-7-7-5-----7-7-7-7-5-6-7--------------------------

G5 F5
e------------------------------------------------------------------
b------15-------------------15-15-15-15-15-------------------------
g----------16---14--15~----------------------16--14~-----------------x2
d------------------------------------------------------------------
a------------------------------------------------------------------
E------------------------------------------------------------------

Em                         C5                     E5
Con rumbo a cualquir lugar sueño volver a partir con rumbo a cualquier
C5                      E5                     C5                   E5
lugar yo me voy de aqui que nadie me diga nada si algo se me olvida mi
       C5               D5
placer es erdedarme en las rutas argentinas 


e------------------------------------------------------------------
b------15-------------------15-15-15-15-15-------------------------
g----------16---14--15~----------------------16--14~-----------------x2
d------------------------------------------------------------------
a------------------------------------------------------------------
E------------------------------------------------------------------


Sera muy bueno el comienzo si veo tu sonrisa por que ando voy y vengo como

salen del fuego las chispas luego en la banquina que ilumina nustro andar el

andar que andamos los que nacimos para hacerlo    

Em         B5          D5
Acompañame no te lo pierdas no cuando amanesca llegaremos a sanjuan tal vez

alli el buen vino nos dara la bienvenida..............


Despues de acopañame no te lo pierdas no 
mas o meno  hace esto

e------------------------------------------------------------------
b----7/9-----------------------------------------------------------
g---------9--7-6--4------------------------------------------------
d------------------------------------------------------------------
a------------------------------------------------------------------
E------------------------------------------------------------------



Hasta aca llegue es el primer tema que saco espero que les sirva de algo
si tiene alguna duda mandenmela a por favor si tiene tiempo avisenme si les sirvio
un saludo chau  me llamo Edaurdo y tengo 16 años
mi mail es edufrank@hotmail.com

Fuente original: LaCuerda
Colaborador original: Edaurdo [edufrank@hotmail.com]





Calificar esta versión:
Aviso: Este fichero es trabajo propio de su transcriptor y representa su interpretación personal de la canción. El material contenido en esta página es para exclusivo uso privado, por lo que se prohibe su reproducción o retransmisión, así como su uso para fines comerciales.