Le-mail A Des Ailes, Alizée (acordes)

Autor: CYBERLACK | 27658 visualizaciones

bcsosmfsosmgsosm


Tonos:C#m, F#m, B, G#m 

[se repite en circulos toda la cancion hasta que ya casi al final sube medio tono]  


Por CYBERLACK

Solo:

E||-----------5--------------|--------------------5--|-----5--4--5-----------|
B||--7--5--7-----------------|-----------7--5--7-----|-----------------------|
G||-----------------7--6--7--|-----------------------|-----------------------|
D||--------------------------|-----------------------|-----------------------|
A||--------------------------|-----------------------|-----------------------|
E||--------------------------|-----------------------|-----------------------|


-----------5--------------|--------------------5--|-----5--4--5-----9--7--9--||
--7--5--7-----------------|-----------7--5--7-----|--------------------------||
-----------------7--6--7--|-----------------------|--------------------------||
--------------------------|-----------------------|--------------------------||
--------------------------|-----------------------|--------------------------||
--------------------------|-----------------------|--------------------------||





Comentarios del colaborador: www.alizee-world.com www.alizee-world.com/forum

Calificar esta versión:
Aviso: Este fichero es trabajo propio de su transcriptor y representa su interpretación personal de la canción. El material contenido en esta página es para exclusivo uso privado, por lo que se prohibe su reproducción o retransmisión, así como su uso para fines comerciales.