Jbg (james Bond Girl), Alizée (acordes)

Autor: CYBERLACK | 20788 visualizaciones

abmdeemg


- J.B.G.--------> Por Howl The Beatle

los acordes son: Bm D E G, D A Em G

de mnodo que van asi:

[intro con punteo, aca al puro estilo Bond!]

1]

-------------------------------------
-------------------------------------
-------------------------------------
-----------------------0-------------
----2----4-4-4---2-4----------------
----------------------------4-3------


2]

-------------------------------------
-------------------------------------
----------------------------4-0------
-----------------------0-------------
----2----4-4-4---2-4----------------
-------------------------------------

Bm-------D
J.B.G., Bikini

E ---------G               
Son nom de code est


Bm--------D---------- E--G
J.B.G., J.B.G.

Bm-------D
J.B.G., pour la vie

E------------G
Autour du globe c'est


[Estribillo]

D----------------A
Oh, elle est canon
Em-----------G
  Calibre, culotte

[se repite todo en toda la canción, incluyendo la parte del punteo]

[tambien les recomiendo escuchar la versión En Concert, ya sea en Dvd o CD poirque se escucha muy clara la guitarra acustica.]





Comentarios del colaborador: Agradecimientos a Howl The Beatle www.alizee-world.com www.alizee-world.com/forum

Calificar esta versión:
Aviso: Este fichero es trabajo propio de su transcriptor y representa su interpretación personal de la canción. El material contenido en esta página es para exclusivo uso privado, por lo que se prohibe su reproducción o retransmisión, así como su uso para fines comerciales.