Rooster, Alice In Chains (tablatura)

Autor: Dave.ore | 29336 visualizaciones



Intro y verso

  F        F?		       A        A?
e    --2----2---0----0---0----0--0--|--5----5---0----0---0----0--0--
B    --2----2---0----0---0----0--0--|--5----5---0----0---0----0--0--
G    --3----3---3----3---3----3--3--|--6----6---6----6---6----6--6--
D    --4----4---4----4---4----4--4--|--7----7---7----7---7----7--7--
A    --4----4---4----4---4----4--4--|--7----7---7----7---7----7--7--
E    --2----2---0----0---0----0--0--|--5----5---0----0---0----0--0--


Coro

 B			  C#
e    --7--7--7--7--7--7--7--7--|--10--10--10--10--10--10--10--10--
B    --7--7--7--7--7--7--7--7--|--10--10--10--10--10--10--10--10--
G    --8--8--8--8--8--8--8--8--|--11--11--11--11--11--11--11--11--
D    --9--9--9--9--9--9--9--9--|--12--12--12--12--12--12--12--12--
A    --9--9--9--9--9--9--9--9--|--12--12--12--12--12--12--12--12--
E    --7--7--7--7--7--7--7--7--|--10--10--10--10--10--10--10--10--
       Here they come to snuff the rooster

	  F			    		   B
e    --0--1--0-1-0-1---1---1--1--1--1--0--1--0-1-0------1--1--
B    --0--1--0-1-0-1---1---1--1--1--1--0--1--0-1-0-4-x--1--1--
G    --3--3--3-3-3-3---3---3--3--3--3--3--3--3-3-3-4-x--3--3--
D    --4--4--4-4-4-4---4---4--4--4--4--4--4--4-4-4-4-x--4--4--
A    --4--4--4-4-4-4---4---4--4--4--4--4--4--4-4-4-2-x--4--4--
E    --0--1--0-1-0-1---1---1--1--1--1--0--1--0-1-0-2-x--1--1--

       B			  C#
e    --7--7--7--7--7--7--7--7--|--10--10--10--10--10--10--10--10--
B    --7--7--7--7--7--7--7--7--|--10--10--10--10--10--10--10--10--
G    --8--8--8--8--8--8--8--8--|--11--11--11--11--11--11--11--11--
D    --9--9--9--9--9--9--9--9--|--12--12--12--12--12--12--12--12--
A    --9--9--9--9--9--9--9--9--|--12--12--12--12--12--12--12--12--
E    --7--7--7--7--7--7--7--7--|--10--10--10--10--10--10--10--10--
       Yeah, here come the rooster, yeah.

B

       E5 F#5 F#7add11        A5  N.C.	       A5 F#5 F#7add11
e    ---------0---0--0--0--|--------------------------0---0--0--0--|
B    ---------0---0--0--0--|--------------------------0---0--0--0--|
G    ---------3---3--3--3--|--2-----------------------3---3--3--3--|
D    ---------4---4--4--4--|--2----------------2------4---4--4--4--|
A    --2--4---4---4--4--4--|--0---4v---3v---2--0--4---4---4--4--4--|
E    --0--2---2---2--2--2--|----------------------2---2---2--2--2--|
     				   You know he ain't gonna die

       A5
e    ------5---5--5--5--|
B    ------5---5--5--5--|
G    --2---2---2--2--2--|
D    --2---2---2--2--2--|
A    --0---0---0--0--0--|
E    -------------------|



e    ------------------|------------------------------|
B    ------------------|------------------------------|
G    ------------------|------------------------------|
D    --9--8--9--9s11v--|--11--9--9s11--8--4--2--------|
A    --x--x--x--x------|---x--x--x-----x--x--x--------|
E    --7--6--7--7s9v---|---9--7--7s9---6--2--0--0--0--|

e    -----------------------------------|------------------|
B    ------------5----------------------|------------------|
G    --2--4--4s6---6s4--2-4-2-4-2-2-2v--|------------------|
D    -----------------------------------|--9--8--9--9s11v--|
A    -----------------------------------|--x--x--x--x------|
E    -----------------------------------|--7--6--7--7s9v---|

e    ------------------------------|-----------------------|
B    ------------------------------|--5--2-----------------|
G    ------------------------------|--------4--2--4p2--2v--|
D    --11--9--9s11--8--4--2--------|-----------------------|
A    ---x--x--x-----x--x--x--------|-----------------------|
E    ---9--7--7s9---6--2--0--0--0--|-----------------------|

e    ------------------|------------------------------------|
B    ------------------|------------------------------------|
G    ------------------|------------------------------------|
D    --9--8--9--9s11v--|--11s14--14--14s16--16--16--14--16--|
A    --x--x--x--x------|---x------x---x------x---x---x---x--|
E    --7--6--7--7s9v---|---9s12--12--12s14--14--14--12--14--|

e    -------------------------------------------|
B    -------------------------------------------|
G    -------------------------------------------|
D    --18--16--14--14v---14--14--14--14-14--14--|
A    ---x---x---x---x-----x---x---x---x--x---x--|
E    --14--12--12--12v---12--12--12--12-12--12--|





Comentarios del colaborador: Esta es una supercancion espero y les agrade

Calificar esta versión:
Aviso: Este fichero es trabajo propio de su transcriptor y representa su interpretación personal de la canción. El material contenido en esta página es para exclusivo uso privado, por lo que se prohibe su reproducción o retransmisión, así como su uso para fines comerciales.