Yo Se Quien Soy, Alfredo Zitarrosa (tablatura)

Autor: Anónimo | 31606 visualizaciones



Introducción:
E||--------7--------7--|--------7--------7--|--5--4--5--4-----4--|
B||--0--0-----0--0-----|--0--0-----0--0-----|--------------8-----|
G||--------------------|--------------------|--------------------|
D||--------------------|--------------------|--------------------|
A||--------------------|--------------------|--------------------|
E||--------------------|--------------------|--------------------|

                                                               
--------------------|--------------------|--------------------|
--7--6--7--5--4--5--|-----0--2-----------|--------0-----------|
--------------------|--2-----------1--2--|--1--2-----------1--|
--------------------|-----------4--------|-----------2--4-----|
--------------------|--------------------|--------------------|
--------------------|--------------------|--------------------|

                                                               
--------------------|--------------------|--------------------|
--------------------|-----------0-----0--|-----------0-----0--|
-----1--2-----------|--------------------|--2-----2-----------|
--4--------1--2--4--|--2--2--2-----2-----|-----4--------4-----|
--------------------|--------------------|--------------------|
--------------------|--------------------|--------------------|

                                                               
--------------------|--------------------|--------------------|
-----------0-----0--|-----------0-----0--|-----------------0--|
--------------------|--2-----2-----------|-----------1--------|
-----2--2-----2-----|-----4--------4-----|-----2--2-----2-----|
--------------------|--------------------|--------------------|
--0-----------------|--------------------|--0-----------------|

                                  
-----------------||
-----0-----------||
--2--------------||
-----4----2------||
--0--2-----------||
----------0------||

A  B7  E

 E A       B7   E  A      B7
Caña de azucar, caña de azúcar
E    A        B7     E   A    B7
por qué no endulzas el cañaveral
E  A    B7     E  A  B7
amargo mar.

Las hojas secas, las hojas secas
las hojas secas del cañaveral
ardiendo están.

Machete hermano, las cañas negras
las cañas negras tendrás que voltear
hay que cortar.

INTRO

Todo tiznado, begro y barcino
sudando a chorros como un animal
yo se quien soy.

Me cae la sombra desde el sombrero
me cae la sombre como un antifaz
yo se quien soy

Ay los riñones que se me parten
que se me parten por menos de un real
hay que cortar

INTRO

Caña de azúcar, caña de azúcar
por qué no endulzas el cañaveral
amargo mar.

Machete hermano, mañana al alba
saldré temprano hacia el cañaveral
yo se quien soy

Y si no vuelvo, caña de azúcar
machete hermano yo se donde ir
mirá que si.



No se asusten, parece difícil pero no lo es. Solamente es 
cuestión de práctica.

Fuente original: LaCuerda
Colaborador original: Santiago Reyes [minutoush@yahoo.com]





Calificar esta versión:
Aviso: Este fichero es trabajo propio de su transcriptor y representa su interpretación personal de la canción. El material contenido en esta página es para exclusivo uso privado, por lo que se prohibe su reproducción o retransmisión, así como su uso para fines comerciales.