Stefanie, Alfredo Zitarrosa (tablatura)

Autor: german tadeo | 30293 visualizaciones



------------------------------------------------
--------5-5--6--3--5--6--5--3-------------------
--2--5-------------------------5--4-------------
------------------------------------------------
------------------------------------------------
------------------------------------------------

------------------------------------------------
--------3--3--5-----3--5--3---------------------
-----4-----------5-----------5--4--2------------
--5---------------------------------------------
------------------------------------------------
------------------------------------------------

------------------------------------------------
-----------3------------------------------------
--2--4--5------5--4--2--4--5--2--4--5-----------
------------------------------------------------
------------------------------------------------
------------------------------------------------

------------------------------------------------
----------------6--5----------------------------
--4-2--1--2--4----------------------------------
------------------------------------------------
------------------------------------------------
------------------------------------------------





Calificar esta versión:
Aviso: Este fichero es trabajo propio de su transcriptor y representa su interpretación personal de la canción. El material contenido en esta página es para exclusivo uso privado, por lo que se prohibe su reproducción o retransmisión, así como su uso para fines comerciales.