Milonga De Pelo Largo, Alfredo Zitarrosa (acordes)

Autor: Anónimo | 32329 visualizaciones

domisi7sol


 Mi 
    Milonga de pelo largo
              Do
    de ojos oscuros
            Sol 
    como la noche
              Si7
    como la noche.


    Historias de penas grandes
    de gente joven
    de penas viejas
    de veinte años



    Consuelo de los que viven 
    siempre arrastrados
    por la rutina
    que es cosa seria.



    Recuerdo de los que huyen 
    de nuestra tierra
    de la violencia
    de la miseria



    Te ofresco mis margaritas
    que estan vacias
    que estan marchitas
    que ya estan secas.



    Te doy todas las renuncias
    de cosas simples
    que llevo echas
    que llevo echas.



    Milonga mi compañera
    que me comprende
    que me protege
    y que me abriga



    Frazada del pobre hombre
    que siente frio
    y no se queja
    Ya no se queja.


Introduccion.[y entre las 3ª y 4ª estrofa]


--0--0--0--0---0-----0--0--0--0---0---------------
-0--0--0--0--0------1--1--1--1--1-----------------
------0------------------0------------------------
---2-----2----2-------2-----2----2----------------
2-----------2------3-----------3------------------
----------------------------------------------------

----3--3--3--3---3------2--2--2--2-------2--------
--0---0--0--0--0-------0--0--0--0----0--------------
-----------0----0-----------2-----------------------
--------0-----0----------1-----1-------1---------
-----2----------------2------------2---------------
-3-------------------------------------------------

En si, la pocision es la de los tonos...cambia el 
trabajo de la mano derecha.Acentuar bien las bordonas.

Fuente original: LaCuerda
Colaborador original: Dario [rdrf40@hotmail.com]





Calificar esta versión:
Aviso: Este fichero es trabajo propio de su transcriptor y representa su interpretación personal de la canción. El material contenido en esta página es para exclusivo uso privado, por lo que se prohibe su reproducción o retransmisión, así como su uso para fines comerciales.