El Principio Del Infierno, Alfredito Olivas (tablatura)

Autor: hever474 | 30936 visualizaciones



espero k les guste la sak soy hever aron de nuevo
dejando esta rola k es un corrido vien chido
arre se los dejo i ai mi correo para servirles

([email protected])

                                     (esto va algo rapido okei)

1---2-2----------------------------------------
2---4-4--2/4-2----------2---2---2------2/4-4--- (3)
3---------------4-3-1-1---4---4---4------------
4----------------------------------------------

                                      (esto ba mas rapido)
1--2-2---------------------------------------------
2--4-4-------------------2---2---2---2---2---2/4-4-
3------2-4-2-4---4-3-1-1---4---4---4---4---4-------
4--------------------------------------------------

1---2-2----------------------------------------
2---4-4--2/4-2----------2---2---2------2/4-0---
3---------------4-3-1-1---4---4---4------------
4----------------------------------------------

E7                 E7
Me llovio cuando me trajieron
       fa7          mi
corria sangre por mi cuerpo (esto es un bajeo lo pondre asi)(**)
 (**)            E7                
mi compañero tendido           4 I---9-8--7-I
     fa7         mi
lo dejaron en el suelo
 (**)               E7
cerraron toda la ciudad
     fa7           mi 
a mi me dieron por muerto
 (**)                 E7 
la camioneta como coladera
            fa7                    mi
oyos en los vidrios sangre en los asientos
(**)               E7  
pero yo seguia con vida
     fa7             mi      
fallaron su cobarde intento

(asi va toda la cancion)

(**)             E7
El final de mi pasiencia
el principio del infierno
el vuelo de las avionetas
de la gente el desconsierto
unos rodeaban las calles
otros las desalojaban
mi proteccion es primero
asi como lo es mi raza
asi decia mi compadrito
cuando su gente ordenaba
que movilizaran todo
y no descuidaran nada

La plaza se calento
se les aparecio el diablo
y en conjunto con la muerte
manotean los contrarios
no hayan ni donde meterse
pero ya estan sentenciados
traen la cola envuelta entre las patas
no baliaron a cualquier asalariado
mi dinastia es importante
del valor se mide el tamaño

Mi posicion sigue en pie
y no voy a retractarme
la super aun la consevo
y ella sera su remate
como botellita de jerez
lo demas ya se lo saben
vengare a mi compañero
abra terror en las calles
al nuevo año no creo que lleguen
pero navidad va a llegarles


espero k les guste gracias y agregenme okk jajaja  me llamo hever aron o el daker o bueno asta luego





Calificar esta versión:
Aviso: Este fichero es trabajo propio de su transcriptor y representa su interpretación personal de la canción. El material contenido en esta página es para exclusivo uso privado, por lo que se prohibe su reproducción o retransmisión, así como su uso para fines comerciales.