Control, Alexis On Fire (tablatura)

Autor: xikOBeNja | 26405 visualizaciones

iNtRo:

Coro/chorus:

|------------------------------------------|e
|------------------------------------------|B
|------------------------------------------|G
|-222222222222-99999999-10101010-7777------|D
|-222222222222-99999999-10101010-7777------|A
|-222222222222-99999999-10101010-7777------|E x2

Gtr 1.                           Gtr 2.

|-------------------------|e   |---------------------------|e
|-------------------------|B   |-7h8p7---------------------|B
|----10--7----10--7-------|G   |-----9h7h9------7--(7h)9---|G
|-7-7-------7-------9--7--|D   |-----------9---------------|D
|-------------------------|A   |---------------------------|A
|-------------------------|E   |---------------------------|E 

This burden's not a heavy one
But I assure you, it's present

This burden's not a heavy one
But I assure you.. 

################################################################

PuEntE/Bridge:

Gtr 1.                           Gtr 2.

|-------------------------|e   |---------------------------|e
|-------------------------|B   |-7h8p7---------------------|B
|----10--7----10--7-------|G   |-----9h7h9------7--(7h)9---|G
|-7-7-------7-------9--7--|D   |-----------9---------------|D
|-------------------------|A   |---------------------------|A
|-------------------------|E   |---------------------------|E x2

################################################################

|-----------------------------|e 
|-----------------------------|B
|-----------------------------|G
|-99999999-10101010-7777------|D
|-99999999-10101010-7777------|A
|-99999999-10101010-7777------|E

..it is present!!.

################################################################

You say that you're in control
You say that you are
I can't think of a time
When you looked less alive
You said, "Wait until light, my dear"
Just wait until light
One more day will go by
Maybe today you should try
Look past the mirror and find
Look past the mirror
That there's something inside
Something more to your life
My words won't heal you now
My words won't heal
It is you who decides
It is you who decides

################################################################

Coro/Chorus:

|------------------------------------------|e
|------------------------------------------|B
|------------------------------------------|G
|-222222222222-99999999-10101010-7777------|D
|-222222222222-99999999-10101010-7777------|A
|-222222222222-99999999-10101010-7777------|E x2

Gtr 1.                           Gtr 2.

|-------------------------|e   |---------------------------|e
|-------------------------|B   |-7h8p7---------------------|B
|----10--7----10--7-------|G   |-----9h7h9------7--(7h)9---|G
|-7-7-------7-------9--7--|D   |-----------9---------------|D
|-------------------------|A   |---------------------------|A
|-------------------------|E   |---------------------------|E 

This burden's not a heavy one
But I assure you, it's present
This burden's not a heavy one
I assure you!!...


################################################################

//Believe that you are just fine
Believe that you are//

|-----------------------------|e 
|-----------------------------|B
|-----------------------------|G
|-99999999-10101010-7777------|D
|-99999999-10101010-7777------|A
|-99999999-10101010-7777------|E

|------------------------------------------|e
|------------------------------------------|B
|------------------------------------------|G
|-222222222222-99999999-10101010-7777------|D
|-222222222222-99999999-10101010-7777------|A
|-222222222222-99999999-10101010-7777------|E

You'll feel so alive
You'll feel so alive
Be what you are now (be what you are)
Be what you are
Do not keep it inside
That hate will not subside
Be what you are now (be what you are)
Be what you are
Do not keep it inside
That hate will not subside

################################################################

It's you, 
decide
It's you, 
decide!!!


pUeNtE/Bridge:

E|--------------------------------------
B|--------------------------------------
G|-/12-11-----------/12-11--------------
D|--------12-14-9-9--------12-14--------
A|--------------------------------------
E|--------------------------------------

------------------------------------------------------------|
------------------------------------------------------------|
--/12-11----------------------------------------------------|
---------12-14-9-9-9-7-5-77~-----5-7-12h9---12h14-12h14-14~-|
------------------------------------------------------------|
------------------------------------------------------------|

So alive
So alive


################################################################

coro/chorus:

|------------------------------------------|e
|------------------------------------------|B
|------------------------------------------|G
|-222222222222-99999999-10101010-7777------|D
|-222222222222-99999999-10101010-7777------|A
|-222222222222-99999999-10101010-7777------|E x2

Gtr 1.                           Gtr 2.

|-------------------------|e   |---------------------------|e
|-------------------------|B   |-7h8p7---------------------|B
|----10--7----10--7-------|G   |-----9h7h9------7--(7h)9---|G
|-7-7-------7-------9--7--|D   |-----------9---------------|D
|-------------------------|A   |---------------------------|A
|-------------------------|E   |---------------------------|E 

This burden's not a heavy one
But I assure, I assure you
This burden's not a heavy one
Not a heavy one
Not a heavy one

Comentarios del colaborador: CONTROL! .. Uuuuuff mi gran creación.. Este tema es la raja!!.. Espero que les guste.. /Se necesitan 3 guitarristas para sonar bien../ AdioZz CONTROL! .. Uuuuuff my great creation .. This issue is one of the best! .. I hope you like it .. / It takes 3 guitarists to sound good .. / Bye

Calificar esta versión:
Aviso: Este fichero es trabajo propio de su transcriptor y representa su interpretación personal de la canción. El material contenido en esta página es para exclusivo uso privado, por lo que se prohibe su reproducción o retransmisión, así como su uso para fines comerciales.