Eres Tanto, Alexander Acha (tablatura)

Autor: Rulex | 35789 visualizaciones



Bueno aqui les dejo esta hermosa canción que la saque porque
se la queria tocar y cantar a alguien muy especial.

Este es el intro la afinacion de la guitarra es standart ( EBGDAE)
       G           A          Bm          A
E--------------------------------------0-----0----0-
B--0-----0-----2-----2-----3-----3-----2-----2--2---
G--4-----4-----2-----2-----4-----4-----2-----2------
D--0-----0-----2-----2-----4-----4------------------
A--2--2--2--2--0--0--0--0--2--2--2--2--0--0--0------
E---------------------------------------------------
     G              A
E-2-----2----0--5-----5-------             
B-0-----0--0----2-----2-------
G-0-------2-----2-------
D-----------------------------
A---------------0--0--0--0----
E-3--3--3---------------------


      G           A
E--7-----7-----9-----9 --------
B--0-----0-----10----10--------
G--0-----0-----9-----9---------
D------------------------------
A--------------0--0--0--0------
E--3--3--3--3-------------------


G A Bm         A       G
Tanto que esperado por ti
Y llegaste así sin avisar a ocuparte de mi

          G    A     G
De tu mirada caí llore     ------
    A G A    G                   
En un solo instante                EN ESTA PARTE SON RASGUEOS
  A       G          A           
te supe te quise te ame    ------

D                                        D/C#
Tanto que llega mis huesos son tantas locuras
                                    Bm
Son tantos tus besos son tantas tus ganas y tantos momentos
               G          A
Que queremos vivir, que sentimos

D                                      D/C#
Tanto que lleva en mi pecho tantas emociones
                               Bm
Tantos sentimientos tanta la alegría y tantos los sueños
                G           A
Que mas puedo pedir eres tanto, no

SE REPITE EL INTRO Y TODO EN ORDEN ANTERIOR CUALQUIER DUDA HAGANMELA LLEGAR





Calificar esta versión:
Aviso: Este fichero es trabajo propio de su transcriptor y representa su interpretación personal de la canción. El material contenido en esta página es para exclusivo uso privado, por lo que se prohibe su reproducción o retransmisión, así como su uso para fines comerciales.