Sweetheart, You Are Sadly Mistaken, Alesana (tablatura)

Autor: rock in my heart | 19906 visualizaciones



GUITARRA 1


E------------------------------------------------------|
B----6--6--6--6--6--6--6--6--6--6--6--6--5--5--5--5----|
G---7--7--7--7--7--7--7--7--7--7--7--7--7--7--7--7-----| X 3
D--7--7--7--7--8--8--8--8--5--5--5--5--7--7--7--7------|
A------------------------------------------------------|
E------------------------------------------------------|



GUITARRA 2

E--5--------------------5-----------------5------------|
B---6--5-6----------5-6---6--5-6------------5-6-5-6-5--|
G----7-----5-5--7-7---------7----5-5--7-7--------------|
D------------------------------------------------------|
A------------------------------------------------------|
E------------------------------------------------------|





Calificar esta versión:
Aviso: Este fichero es trabajo propio de su transcriptor y representa su interpretación personal de la canción. El material contenido en esta página es para exclusivo uso privado, por lo que se prohibe su reproducción o retransmisión, así como su uso para fines comerciales.