And They Call This Tragedy, Alesana (tablatura)

Autor: KIKENXIRX | 41632 visualizaciones



THIS IS THE TAB OF  GREAT SONG DROP D# AND PLAY IT ^_^

INTRO
|--11------11-10--------11-10----8----------11-10-------------|
|----------------11-----------11---8--------------11//--------|
|------------------------------------8------------------------|
|-------------------------------------------------------------|
|-------------------------------------------------------------|
|-------------------------------------------------------------|

|----------8-8--------|      |--10-8---8----------8-8-------8-8-8-8-8-8--|
|------8-------8-8----|      |-------8--------8-------8-8---8-8-8-8-8-8--|
|--8-8---8------------|      |------------8-8---8-----------8-8-8-8-8-8--|
|---------------------| [x5] |-------------------------------------------|
|---------------------|      |-------------------------------------------|
|---------------------|      |-------------------------------------------|

"YOU MAKE ME SIIIICK"
|----------8-0-10-0-8-0-----8-0-10-0-8-0-----8-0-10-0-8-0----8-0-10---|
|--8-0-8-0--------------8-0--------------8-0--------------8-0---------|
|---------------------------------------------------------------------|
|---------------------------------------------------------------------|
|---------------------------------------------------------------------|
|---------------------------------------------------------------------|

VERSE
I'LL   TEAR  OUT....
|---------------------------------------------------------------------|
|--------6-------6-------6------------------6-----6-----6-------------|
|---------------------------------------------------------------------|
|--10-10---10-10---10-10---10-10--8-8---6-6---6-6---6-6---6-6---8-8---| [x2]
|--10-10---10-10---10-10---10-10--8-8---6-6---6-6---6-6---6-6---8-8---|
|--8--8----8--8----8--8----8--8---6-6---4-4---4-4---4-4---4-4---6-6---|

REMEMBERING THE NIGHTS....
|-----------------------------------------------------------------------------|
|-----------------------------------------------------------------------------|
|-----------------------------------------------------------------------------|
|--6-6-6-6-6-6-8-8-8-8-8-8-5-5-5-5-5-5-10-10-10-10-8-8-8-8-6-6-6-6-8-8-8-8-8-|
|--6-6-6-6-6-6-8-8-8-8-8-8-5-5-5-5-5-5-10-10-10-10-8-8-8-8-6-6-6-6-8-8-8-8-8-|
|--4-4-4-4-4-4-6-6-6-6-6-6-3-3-3-3-3-3-8--8--8--8--6-6-6-6-4-4-4-4-6-6-6-6-6-|

CHORUS (TRY TO PLAY THIS PART VERY FAST)
AS THE LIFE....
|--------------------------------------------------------------------------|
|--------------------------------------------------------------------------|
|--078-078-078-7-7-8-078-078-078-7-7-8-078-078-078-7-7-8-078-078-078-7-7-8-|
|--------------------------------------------------------------------------|
|--------------------------------------------------------------------------|
|--------------------------------------------------------------------------|

|-------------------------------------------------------8---8---8---8----|
|---------------------------------------8---8---6---6--------------------|
|--057-057-057-7-7-8-057-057-057-7-7-8----5---5---5---5---5---5---5---5--|
|------------------------------------------------------------------------|
|------------------------------------------------------------------------|
|------------------------------------------------------------------------|

|--------------------------------------------------------------------------|
|--------------------------------------------------------------------------|
|--078-078-078-7-7-8-078-078-078-7-7-8-078-078-078-7-7-8-078-078-078-7-7-8-|
|--------------------------------------------------------------------------|
|--------------------------------------------------------------------------|
|--------------------------------------------------------------------------|

|-------------------------------------------------------8---8---8---8----|
|---------------------------------------8---8---6---6--------------------|
|--057-057-057-7-7-8-057-057-057-7-7-8----5---5---5---5---5---5---5---5--|
|------------------------------------------------------------------------|
|------------------------------------------------------------------------|
|------------------------------------------------------------------------|

|--10-11--11--10--10-11--11--10----|
|--8------8---8---8------8---8-----|
|----------------------------------|
|----------------------------------|
|----------------------------------|
|----------------------------------|

VESRE
IF I CAN  NOT...
|-----------------------------------------------------------------------|
|------------9-9-8----------9-8-----------------------------------------|
|-----7-8--------------8------------------------------------------------|
|--10-----10--------10---10-----10--10-10-10-10-10-10--10--10-10--10-10-| [x4]
|-----------------------------------10-10-10-10-10-10--10--10-10--10-10-|
|-----------------------------------8--8--8--8--8--8---8---8--8---8--8--|
                                    .  .  .  .  .  .       

|-------------------------------------------------|
|-------------------------------------------------|
|--5-7-8-5-7-8-5-7-8-5-7-8-5-7-8-5-7-8-5-7-8------|
|-------------------------------------------------|
|-------------------------------------------------|
|-------------------------------------------------|

CHORUS 
AS THE LIFE....
|--------------------------------------------------------------------------|
|--------------------------------------------------------------------------|
|--078-078-078-7-7-8-078-078-078-7-7-8-078-078-078-7-7-8-078-078-078-7-7-8-|
|--------------------------------------------------------------------------|
|--------------------------------------------------------------------------|
|--------------------------------------------------------------------------|

|-------------------------------------------------------8---8---8---8----|
|---------------------------------------8---8---6---6--------------------|
|--057-057-057-7-7-8-057-057-057-7-7-8----5---5---5---5---5---5---5---5--|
|------------------------------------------------------------------------|
|------------------------------------------------------------------------|
|------------------------------------------------------------------------|

|--------------------------------------------------------------------------|
|--------------------------------------------------------------------------|
|--078-078-078-7-7-8-078-078-078-7-7-8-078-078-078-7-7-8-078-078-078-7-7-8-|
|--------------------------------------------------------------------------|
|--------------------------------------------------------------------------|
|--------------------------------------------------------------------------|

|-------------------------------------------------------8---8---8---8----|
|---------------------------------------8---8---6---6--------------------|
|--057-057-057-7-7-8-057-057-057-7-7-8----5---5---5---5---5---5---5---5--|
|------------------------------------------------------------------------|
|------------------------------------------------------------------------|
|------------------------------------------------------------------------|

|--10-11--11--10--10-11--11--10--10-11--11--10--10-11--11--10-----|
|--8------8---8---8------8---8---8------8---8---8------8---8------|
|-----------------------------------------------------------------|
|-----------------------------------------------------------------|
|-----------------------------------------------------------------|
|-----------------------------------------------------------------|

AFTER TODAY.....
|--------------------------------------------------------------------|
|--------------------------------------------------------------------|
|--------------------------------------------------------------------|
|--10-10-10-10-10-10-10-10-10-10-10-10-6-6-6-6-6-6-6-6-6-6-6-6-6-----| [x2]
|--10-10-10-10-10-10-10-10-10-10-10-10-6-6-6-6-6-6-6-6-6-6-6-6-6-----|
|--8--8--8--8--8--8--8--8--8--8--8--8--4-4-4-4-4-4-4-4-4-4-4-4-4-----|
   .  .  .  .  .  .  .  .  .  .  .  .  . . . . . . . . . . . . .

|--6-6-6-6-6-6-6-6-6-6-6-6-----6-----6-----6---6--6--6-6--6----------|
|--------------------------------------------------------------------|
|--------------------------------------------------------------------|
|--------------------------------------------------------------------|
|--------------------------------------------------------------------|
|--------------------------------------------------------------------|


|---------6-------6--------6--------------------|                     /
|-----------------------------------------------|                     /
|--8-8-8----8-8-8----8-8-8----4-4-4--6-6-6------|                     /
|--8-8-8----8-8-8----8-8-8----4-4-4--6-6-6------|                     /
|--6-6-6----6-6-6----6-6-6----2-2-2--4-4-4------|                     /
|-----------------------------------------------|                     /
                                                                      / [X2]
|---------6-------6--------6---------------------------------------|  /
|------------------------------------------------------------------|  /
|--8-8-8----8-8-8----8-8-8----4-4-4--6-6-6--11-11-11--10-10-10-----|  /
|--8-8-8----8-8-8----8-8-8----4-4-4--6-6-6--11-11-11--10-10-10-----|  / 
|--6-6-6----6-6-6----6-6-6----2-2-2--4-4-4--9--9--9---8--8--8------|  /
|------------------------------------------------------------------|  /

AND YOU SAID THIS WOULD BE FOREVER
|-------------------------------------------------|
|--9-9-9-7-7-7-6-6-9-9-9-7-7-7-6-7-6--------------|
|-------------------------------------------------|
|-------------------------------------------------|
|-------------------------------------------------|
|-------------------------------------------------|
   . . . . . . . . . . . . . .

CHORUS 
AS THE LIFE....
|--------------------------------------------------------------------------|
|--------------------------------------------------------------------------|
|--078-078-078-7-7-8-078-078-078-7-7-8-078-078-078-7-7-8-078-078-078-7-7-8-|
|--------------------------------------------------------------------------|
|--------------------------------------------------------------------------|
|--------------------------------------------------------------------------|

|-------------------------------------------------------8---8---8---8----|
|---------------------------------------8---8---6---6--------------------|
|--057-057-057-7-7-8-057-057-057-7-7-8----5---5---5---5---5---5---5---5--|
|------------------------------------------------------------------------|
|------------------------------------------------------------------------|
|------------------------------------------------------------------------|

|--------------------------------------------------------------------------|
|--------------------------------------------------------------------------|
|--078-078-078-7-7-8-078-078-078-7-7-8-078-078-078-7-7-8-078-078-078-7-7-8-|
|--------------------------------------------------------------------------|
|--------------------------------------------------------------------------|
|--------------------------------------------------------------------------|

|-------------------------------------------------------8---8---8---8----|
|---------------------------------------8---8---6---6--------------------|
|--057-057-057-7-7-8-057-057-057-7-7-8----5---5---5---5---5---5---5---5--|
|------------------------------------------------------------------------|
|------------------------------------------------------------------------|
|------------------------------------------------------------------------|

|--8---8-----|
|--7---7-----|
|--5---5-----|
|------------|
|------------|
|------------|





Calificar esta versión:
Aviso: Este fichero es trabajo propio de su transcriptor y representa su interpretación personal de la canción. El material contenido en esta página es para exclusivo uso privado, por lo que se prohibe su reproducción o retransmisión, así como su uso para fines comerciales.