Evolucion, Aleks Syntek (tablatura)

Autor: Anónimo | 31506 visualizaciones

(LA version Bristol)


[INTRO]

           EbGDAE                  
   Emaj7   79877x


   Emaj7            F#                      Dmaj7                E        
e--0----------------0--------------------------------------------0-----------------
B----4--------------2---------------------------2--3-------------0-----------------
G------4------------3-------------------------2------------------4-----------------
D--------4----------4-----------------------4--------------------2-----------------
A----------------------------------------------------------------------------------
E----------------------------------------------------------------------------------
   ves, el tiempo tenia razon, la edad te hizo cambiar y tu no supiste cuando

   Emaj7             F#11                  Dsus2                      E
   hay los que no pueden creer y se van quedando atras, no pueden ver mas alla



[PER-CORO]

   E                     Dsus                   Emaj7                Dmaj7
 --0---------------------0----------------------4--------------------2--------------
 --0---------------------2----------------------4--------------------2--------------
 --1---------------------2----------------------4--------------------2--------------
 --2---------------------0----------------------2--------------------0--------------
 --2---------------------0----------------------2--------------------x--------------
 --0--------------------------------------------0--------------------x--------------
   mira cuando dura este viaje cuanto tiempo te pone y si te hace sentir mejor



[VERSO]


   Emaj7                 F#                        Dmaj7                 E        
 --0---------------------0-----------------------------------------------0-----------
 ----4-------------------2-----------------------------2--3--------------0-----------
 ------4-----------------3---------------------------2-------------------4-----------
 --------4---------------4-------------------------4---------------------2-----------
 ------------------------------------------------------------------------------------
 ------------------------------------------------------------------------------------
   es la luz que esta en tu interior la que puedo iluminar las sobras de tu camino



[PER-CORO]

   E                     Dsus                   Emaj7                Dmaj7
 --0---------------------0----------------------4--------------------2--------------
 --0---------------------2----------------------4--------------------2--------------
 --1---------------------2----------------------4--------------------2--------------
 --2---------------------0----------------------2--------------------0--------------
 --2---------------------0----------------------2--------------------x--------------
 --0--------------------------------------------0--------------------x--------------
   mira cuando dura este viaje cuanto tiempo te pone y si te hace sentir mejor




[CORO]


   Am7           Em7                A#              Fmaj7
 --0-------------0------------------1---------------0-------------------
 --1-------------3------------------3---------------1-------------------
 --0-------------0------------------3---------------2-------------------
 --2-------------2------------------3---------------3-------------------
 --0-------------2------------------1---------------3-------------------
 ----------------0------------------------------------------------------
   hoy me siento  (parte de la evolucion) no quiero retroseder            [4x]


  
[VERSO]

  Emaj7             F#                     Dmaj7                    E   
  ves, el cambio va mas alla, tu mundo empezo a girar y no hay como detenerlo

  Emaj7          F#11                    Dsus2               E  
  ya no debes llegar atras, el 'hubiera' ya no es y no debes lamentarlo



[CORO]


   Am7           Em7                A#              Fmaj7
   hoy me siento  (parte de la evolucion) no quiero retroseder           [4x]



[FINAL]

        Dsus      Fmaj7

        Cmaj7     A9     [3x]
Calificar esta versión:
Aviso: Este fichero es trabajo propio de su transcriptor y representa su interpretación personal de la canción. El material contenido en esta página es para exclusivo uso privado, por lo que se prohibe su reproducción o retransmisión, así como su uso para fines comerciales.