Encantado, Aleks Syntek (tablatura)

Autor: Anónimo | 42783 visualizaciones

[intro]

                
        330023  3445xx  3545xx  334353  010233  000233            345533  344533  53545x
	G       G+      G6      G7      C       Cmaj7   C  Cmaj7  Cm      Cm7     D7
e-------3-------3-------3-------3-------0--------0----------------3-------3-------5---------------
B-------3-------4-------5-------3-------1--------0----------------4-------4-------3---------------
G-------0-------4-------4-------4-------0--------0----------------5-------4-------5---------------
D-------0-------5-------5-------3-------2--------2----------------5-------5-------4---------------
A-------2-------x-------x-------5-------3--------3----------------3-------3-------5---------------
E-------3-------x-------x-------3-------3--------3----------------3-------3-------x---------------



[verso]

G         G+
Encantado de conocerte
    G6               G7
hay tantas cosas que puedo ofrecerte
  C             Cmaj7    C    Cmaj7
y quiero que te cazes conmigo
  Cm             Cm7         D7
y quiero que me aceptes contigo


exitado por ver tu sonrisa
fui a escoger este anillo de prisa
me muero por quedarme contigo
y estoy dispuesto a ser tu marido



[coro]
  
   Cadd9     Dsus/B            Am7        Dsus/B
e---3---------x----------------0-----------x------------------------
B---3---------3----------------1-----------3------------------------
G---0---------2----------------0-----------2------------------------
D---2---------x----------------2-----------x------------------------
A---3---------2----------------0-----------2------------------------
E---x---------x----------------x-----------x------------------------
      voy a pelear por nuestro pan de cada dia

   Cadd9       Bm7          Asus4/G    Dsus/B
 ---3-----------2------------3----------x----------------------------
 ---3-----------3------------3----------3----------------------------
 ---0-----------2------------2----------2----------------------------
 ---2-----------4------------2----------x----------------------------
 ---3-----------2------------0----------2----------------------------
 ---x-----------x------------x----------X----------------------------
      tengas un techo que te tenga protegida

   Cadd9         Bm7     Am/G   Dsus/B
 ---3-------------2------3-------x----------------------------------------------
 ---3-------------3------1-------3----------------------------------------------
 ---0-------------2------0-------2----------------------------------------------
 ---2-------------4------2-------x----------------------------------------------
 ---3-------------2------0-------2----------------------------------------------
 ---x-------------x------x-------x----------------------------------------------
      si Dios nos da creaturas divinas


    F#7            B7              (G)
    tu regaras mi amor, nuestro jardin



[repite los acordes]

	G       G+      G6      G7      
    
        C   Cmaj7   C  Cmaj7    Cm   Cm7    D7



[repite el verso]

   G         G+                            G6               G7
 ------------------------------------------------------------------------------------------------
 -------------------------8----------------------------------------------------------------------
 -----------------------9---9-7---9p7h9---------------------------------9-7-9-----------------
 -------------------------------9-------------------------------------------------9p7p5----------
 ------------------------------------------------------------------------------------------------
 ------------------------------------------------------------------------------------------------
   Encantado de conocerte              hay tantas cosas que puedo ofrecerte

   C            Cmaj7    C   Cmaj7                        Cm             Cm7        D7       
 ------------------------------------------------------------------------------------------------
 ---------------------------------8-10-12-12p10p8------------------------------------------------
 -------------------------------9-----------------9-(8)------------------------------------------
 ------------------------------------------------------------------------------------------------
 ------------------------------------------------------------------------------------------------
 ------------------------------------------------------------------------------------------------
y quiero que te cazes conmigo                           y quiero que me aceptes contigo


 G           G+                  G6              G7
 exitado por ver tu sonrisa, fui a escoger este anillo de prisa

    C            Cmaj7     C   Cmaj7     Cm              Cm7       D7
 me muero por quedarme contigo,      y estoy dispuesto a ser tu marido



[coro]
  
   Cadd9        Dsus/B           Am7         Dsus/B
        voy a pelear por nuestro pan de cada dia

   Cadd9       Bm7          Asus4/G    Dsus/B
     tengas un techo que te tenga protegida

   Cadd9         Bm7     Am/G   Dsus/B
     si Dios nos da creaturas divinas
                                               364353
    F#7            B7               G          G7     [sosten]
    tu regaras mi amor, nuestro jardin

Fuente original: LaCuerda
Colaborador original: Argenis [incubusx8@msn.com]
Calificar esta versión:
Aviso: Este fichero es trabajo propio de su transcriptor y representa su interpretación personal de la canción. El material contenido en esta página es para exclusivo uso privado, por lo que se prohibe su reproducción o retransmisión, así como su uso para fines comerciales.