De Noche En La Ciudad, Aleks Syntek (bajo)

Autor: Anónimo | 44289 visualizaciones

Esta cancion es buena, aunque esta facil.

solo tiene Dos estructuras de arreglos
y usa 4 tonos, 2 para el verso, los 4 para el CORO


nomenclatura

* = dejar sonar la nota hasta que entre la que sigue
x = repetir x numero de veces

va.

INTRO, VERSO

   C              F
              x4	      x4
G--------------|--------------|------
D--------------|---1-3*-1-0---|------
A---1--3*-1-0--|--------------|------
E--------------|--1-----------|------
B--1-----------|--------------|------


CORO		  Buscando luceeees luces de noche en la ciudad
   C              F                Bb          Ab
	       x              x 
G--------------|--------------|------------------------------
D--------------|---1-3*-1-0---|------8*----8-------6*---6----
A---1--3*-1-0--|--------------|----8-----8-------6----6------
E--------------|--1-----------|--6-------------4-------------
B--1-----------|--------------|------------------------------


Se repite x numero de veces, solo cuentenlas.

NO tiene pierde la cancion. solo hay que tomar en cuenta las paradas, 
cuando entra el banjo y los coros. de ahi en mas el bajo es el mismo.


Sale, Saludos a DALI y a toda la raza.

Dudas comentarios o pedidos a mi mail
Gualo@hotmail.com


Gualo.

Fuente original: LaCuerda
Colaborador original: Gualo [guaLo@hotmail.com]
Calificar esta versión:
Aviso: Este fichero es trabajo propio de su transcriptor y representa su interpretación personal de la canción. El material contenido en esta página es para exclusivo uso privado, por lo que se prohibe su reproducción o retransmisión, así como su uso para fines comerciales.