Celia, Alcoholika (tablatura)

Autor: jcaf4 | 37694 visualizaciones

Este es la canción  Celia de alcoholika
Es la canción con el bajeo

Bajo
E----------------------------------------------------------
B----------------------------------------------------------
G----------------------------------------------------------
D----------------------------------------------------------
A---------5---5-----7---7----5---5-------------------------
E-7---7-----------------------------7---7-------5----7-----

Aqui suena la zampoña
Pero la saque en punteada

E---12---12---10----------10---12---12-----10--------------
B-----------------12----------------------------12---------
G----------------------------------------------------------
D----------------------------------------------------------
A----------------------------------------------------------
E----------------------------------------------------------
E----------------------------------------------------------
B---10---10------8------------8-----10---10----8-----------
G-------------------9---9--------------------------9-------
D----------------------------------------------------------
A----------------------------------------------------------
E----------------------------------------------------------

E----------------------------------------------------------
B--------------8----8--------------------------------------
G----7--7----------------9---------------------------------
D----------------------------------------------------------
A----------------------------------------------------------
E----------------------------------------------------------

E-----------------------------------10-------10------------
B----12--12---10------8--8--- 12--------12-------12--------
G----------------------------------------------------------
D----------------------------------------------------------
A----------------------------------------------------------
E----------------------------------------------------------

E----------------------------------------------------------
B--10----10---8--------8----10---10---8------------8-8--8--
G----------------9---9------------------9--7---7----------9
D----------------------------------------------------------
A----------------------------------------------------------
E----------------------------------------------------------
Calificar esta versión:
Aviso: Este fichero es trabajo propio de su transcriptor y representa su interpretación personal de la canción. El material contenido en esta página es para exclusivo uso privado, por lo que se prohibe su reproducción o retransmisión, así como su uso para fines comerciales.