Callejer, Alberto Cortez (tablatura)

Autor: Anónimo | 34298 visualizaciones



Este es el arpegio que hace en la prumera estrofa

REm
---1-----1-----1----
-----3-----3--------
-------2-----2------    Se repite dos veces
-0------------------
--------------------
--------------------

DO
---0-----0-----0----
-----1-----1--------
-------0-----0------    Esto va una vez
--------------------   
-3------------------
--------------------

Se repite hasta donde dice (SU FILOSOFIA DE LA LIBERTAS)

Despues de arpegea asi

LAm
---0-----0-----0---------
-----1-----1-------------
-------2-----2-----------   Dos veces
-2-----------------------
-------------------------
-------------------------

MI
---0-----0-----0---------
-----0-----0-------------
-------1-----1-----------   Una vez
-------------------------
-2-----------------------
-------------------------

Se hace hasta donde dice(Y SOBRE LOS OTROS NO PASAR JAMAS)

Despues es asi

B7
---2-----2-----2----------
-----4-----4--------------
-------2-----2------------   Dos veces
-4------------------------
--------------------------
--------------------------

MI
---0-----0-----0---------
-----0-----0-------------
-------1-----1-----------  Una vez
-------------------------
-2-----------------------
-------------------------

Luego enpiezan los acordes

Me llamo Cristian tengo 13 años.
Espero que les alla gustado.

Si hay algun error avisenme a mi mail
[email protected]

Fuente original: LaCuerda
Colaborador original: Cristian [[email protected]]





Calificar esta versión:
Aviso: Este fichero es trabajo propio de su transcriptor y representa su interpretación personal de la canción. El material contenido en esta página es para exclusivo uso privado, por lo que se prohibe su reproducción o retransmisión, así como su uso para fines comerciales.