Recordame No Pensar En Voz, Al D-tal (acordes)

Autor: ALEJOPUNK | 19698 visualizaciones

b5csos5dsos5e5fsos5gsos5


B5                    F#5
los sueños me hacen cantar

                  G#5                E5///  D#5/C#5/B5
porque no es facil olvidar lo que senti...

 B5                F#5
trato de afinar mi corazon

      G#5                     E5///  D#5/C#5/B5
deja que se escriba otra cancion...


G#5                E5
 que es dificil no pensar en ti

              B5                F#5
cuando en mi mente tus fotos estan....

      G#5               E5
y tus cartas llenan una caja de amor

      B5              F#5///    D#5/C#5/B5
y las ilusiones se me van...



B5            F#5
 recordame no pensar en vos

       G#5                 E5///   D#5/C#5/B5
no hay razon para pedir perdon

B5                 F#5
cuantas botellas vacias deje

      G#5                  E5///   D#5/C#5/B5
y tu cuerpo en mi mente grabe...




e|--------7-----------7-----------9-----------9-------|
B|--7-7-7---7---7-7-7---7---7-7-7---7---7-7-7---7-----|
G|----------------------------------------------------|
D|----------------------------------------------------|
A|----------------------------------------------------|
E|----------------------------------------------------|



e|--11-11-11-11-9-7-9-7--9-7---|
B|--------------------------11-|
G|-----------------------------|
D|-----------------------------|
A|-----------------------------|
E|-----------------------------|



e|--------7-----------7-----------9-----------9-------|
B|--7-7-7---7---7-7-7---7---7-7-7---7---7-7-7---7-----|
G|----------------------------------------------------|
D|----------------------------------------------------|
A|----------------------------------------------------|
E|----------------------------------------------------|



e|--11-11-11-11-9-7-12-11-9-7//---|
B|--------------------------------|
G|--------------------------------|
D|--------------------------------|
A|--------------------------------|
E|--------------------------------|



G#5                E5
 que es dificil no pensar en ti

              B5                F#5
cuando en mi mente tus fotos estan....

      G#5               E5
y tus cartas llenan una caja de amor

      B5              F#5///    D#5/C#5/B5
y las ilusiones se me van...



B5            F#5
 recordame no pensar en vos

       G#5                 E5///   D#5/C#5/B5
no hay razon para pedir perdon

B5             F#5
alicia deja tu luz prendida

       G#5                   E5
por si se acaban tus sueños sepas que hacer...



e|--------7-----------7-----------9-----------9-------|
B|--7-7-7---7---7-7-7---7---7-7-7---7---7-7-7---7-----|
G|----------------------------------------------------|
D|----------------------------------------------------|
A|----------------------------------------------------|
E|----------------------------------------------------|



e|--11-11-11-11-9-7-9-7--9-7---|
B|--------------------------11-|
G|-----------------------------|
D|-----------------------------|
A|-----------------------------|
E|-----------------------------|



e|--------7-----------7-----------9-----------9-------|
B|--7-7-7---7---7-7-7---7---7-7-7---7---7-7-7---7-----|
G|----------------------------------------------------|
D|----------------------------------------------------|
A|----------------------------------------------------|
E|----------------------------------------------------|



e|--11-11-11-11-9-7-12-11-9-7//---|
B|--------------------------------|
G|--------------------------------|
D|--------------------------------|
A|--------------------------------|
E|--------------------------------|



B5             F#5
alicia deja tu luz prendida

       G#5                   E5
por si se acaban tus sueños sepas que hacer...

B5                 F#5
cuantas botellas vacias deje

      G#5                  E5///   D#5/C#5/B5
y tu cuerpo en mi mente grabe...



B5-F#5-G#5-E5/// D#5/C#5/B5





Comentarios del colaborador: LA CUERDA.COM

Calificar esta versión:
Aviso: Este fichero es trabajo propio de su transcriptor y representa su interpretación personal de la canción. El material contenido en esta página es para exclusivo uso privado, por lo que se prohibe su reproducción o retransmisión, así como su uso para fines comerciales.