Theme Of Laura, Akira Yamaoka (tablatura)

Autor: erickslash | 27010 visualizaciones

Intro

e---------------------------------------------|
B---------------------------------------------|
G---------------------------------------------|
D----2-2-2-2-2/4-4-4-4-4-4/5-5-5-5-7---5---4--|
A----3-3-3-3-3/5-5-5-5-5-5/7-7-7-7-7---7---5--|
E---------------------------------------------|
(x2)

Before Lead Guitar Comes In

e-----0-----0-----2-----2-----3-----3--2--0-----7---7---5---0----7---7-----|
B--0-----0-----0-----0-----0-----0-----------0-----------------------------|
G--------------------------------------------------------------------------|
D--------------------------------------------------------------------------|
A--------------------------------------------------------------------------|
E--------------------------------------------------------------------------|

Main Guitar

e-------------------------------------------------------------------------|
B---------3/5-------------------------------------------------------3-----|
G------0-------4------2-2/4---0----------------4---2-------------------4--|
D----2---------------------------------4---5------------2---2/5-----------|
A--3----------------------------------------------------------------------|
E-------------------------------------------------------------------------|


e--------------------------------------------------------------------|
B---------3/5-----------------------------------------3---3/5--------|
G------0-------4-------2-2/4---0-------------4---2---------------4---|
D----2------------------------------4---5----------------------------|
A--3-----------------------------------------------------------------|
E--------------------------------------------------------------------|


e----------3---------------------|
B----------0---------------------|
G----------0---------------------|
D--2-------2---------------------|
A--2--------------3-----2-----1--|
E--0-----------------------------|
(x4)

e--------3-----2-----2--3--2---0-------|
B----------------------------------0---|
G-2--2---------------------------------|
D--------------------------------------|
A--------------------------------------|
E--------------------------------------|

e--------3-----2-----5--3--2---0---5----12--|
B-------------------------------------------|
G-2--2--------------------------------------|
D-------------------------------------------|
A-------------------------------------------|
E-------------------------------------------|


Lead In
(I usually dont play this, but you can if you think it sounds good)

e---3--3--3--3--5--3--2---------------------|
B-------------------------------------------|
G-------------------------------------------|
D-------------------------------------------|
A-------------------------------------------|
E-------------------------------------------|

e|---------------0---3---5---0-----------3----2--3--5----0-------|
B|------1---3----------------------------------------------------|
G|--2------------------------------------------------------------|
D|---------------------------------------------------------------|
A|---------------------------------------------------------------|
E|---------------------------------------------------------------|

e|---------------0---3---5---0-----------3----2--3p2h3-----------|
B|------1---3--------------------------------------------2-------|
G|--2------------------------------------------------------------|
D|---------------------------------------------------------------|
A|---------------------------------------------------------------|
E|---------------------------------------------------------------|

e|---------------0---3---5---0-----------3----2----3--4--5--7-----|
B|------1---3-----------------------------------------------------|
G|--2-------------------------------------------------------------|
D|----------------------------------------------------------------|
A|----------------------------------------------------------------|
E|----------------------------------------------------------------|

e|---3--3--3--2--2--3/5--0--------2----0-------3---2--3-----3--2--0-----0------------0---|
B|----------------------------0-----0-------------------3------------0------4--2--4------|
G|---------------------------------------------------------------------------------------|
D|---------------------------------------------------------------------------------------|
A|---------------------------------------------------------------------------------------|
E|---------------------------------------------------------------------------------------|
(x4)

Interlude 1

e|---------14--15--17-------15--14---12--------------------------------------|
B|----17----------------------------------12---------------------------------|
G|---------------------------------------------------------------------------|
D|---------------------------------------------------------------------------|
A|---------------------------------------------------------------------------|
E|---------------------------------------------------------------------------|

e|----------------------------------------------------------|
B|------------------------------------0--3--0---------------|
G|------------0-----------0--------0-----------0------------|
D|---------2-----2--0--4-----4--2-----------------4---------|
A|---2--3---------------------------------------------------|
E|----------------------------------------------------------|
(x2)

Interlude 2

e|---12--14--15-----14--12--10-----12--14--12----------12--14--15--15------14--15--17------15--14--12--12------14--15--14--|
B|-------------------------------------------------------------------------------------------------------------------------|
G|-------------------------------------------------------------------------------------------------------------------------|
D|-------------------------------------------------------------------------------------------------------------------------|
A|-------------------------------------------------------------------------------------------------------------------------|
E|-------------------------------------------------------------------------------------------------------------------------|

e-------------------------------------------------------------------------|
B---------3/5-------------------------------------------------------3-----|
G------0-------4------2-2/4---0----------------4---2-------------------4--|
D----2---------------------------------4---5------------2---2/5-----------|
A--3----------------------------------------------------------------------|
E-------------------------------------------------------------------------|

e--------------------------------------------------------------------|
B---------3/5-----------------------------------------3---3/5--------|
G------0-------4-------2-2/4---0-------------4---2---------------4---|
D----2------------------------------4---5----------------------------|
A--3-----------------------------------------------------------------|
E--------------------------------------------------------------------|

e----------3---------------------|
B----------0---------------------|
G----------0---------------------|
D--2-------2---------------------|
A--2--------------3-----2-----1--|
E--0-----------------------------|
(x3)


e----------3------|
B----------0------|
G----------0------|
D--2-------2------|
A--2--------------|
E--0--------------|

| /  slide up
| \  slide down
| h  hammer-on
| p  pull-off
| ~  vibrato
| +  harmonic
| x  Mute note
===============================================================================

Comentarios del colaborador: mi primera cancion asi que califiquenla bien

Calificar esta versión:
Aviso: Este fichero es trabajo propio de su transcriptor y representa su interpretación personal de la canción. El material contenido en esta página es para exclusivo uso privado, por lo que se prohibe su reproducción o retransmisión, así como su uso para fines comerciales.