Kill Caustic, Afi (tablatura)

Autor: gonzalo tapia aguirre | 30555 visualizaciones



 

"This Time Imperfect" (Hidden Track) - AFI

I think this one beats the hell outta all the others 

h=hammer 
p=pull 
/=tremelo picking 

Tuned down 1/2 step. 
 Yall can figure out which parts are which
Eb-----------------------------------------------------/-------------/---------
 
Bb-----------------------------------------------------/------------*/---------
 
Gb------------0----------------0---------0-----0-------/-------------/---------
 
Db-------0------0--------0-------0---0-----0-----5---4-/-------4-----/---------
 
Ab-----5------------5--5---5-5-----5---------5-----5---/--5------5--*/---------
Eb---3------3-----3--------------------0---------------/-----0-----0-/---------
 

Eb-----------------------------------------------------------------------------
- 
Bb-----------------------------------------------------------------------------
- 
Gb------------0----------------0---------0-----0-------------------------------
- 
Db-------0------0--------0-------0---0-----0-----5---4---------4---------------
- 
Ab-----5------------5--5---5-5-----5---------5-----5------5------5-------------
- 
Eb---3------3-----3--------------------0---------------------0-----0-----------
- 
 
Eb-----------------------------------------------------------------------------
- 
Bb-----------------------------------------------------------------------------
- 
Gb------------0----------------0---------0-----0-------------------------------
- 
Db-------0------0--------0-------0---0-----0-----5---4---------4---------------
- 
Ab-----5------------5--5---5-5-----5---------5-----5------5------5-------------
- 
Eb---3------3-----3--------------------0---------------------0-----0-----------
- 
 
Eb----------------------------------------3-----7------2----2------------------
- 
Bb------------------------------------------5-----8----0------5----------------
- 
Gb----------------------0-----0--------------4-----9-----------4---------------
-
Db-------0-----0-----------0-----0---0-----------------------------------------
- 
Ab-----5-----5------5---------------5------------------------------------------
- 
Eb---3-----3-----3-----2-----2----------0-----------------0-------0------------
- 

Eb-----------5---------2-----2-------------------------------------------------
- 
Bb-------------5---------3-----3-----------------------------------------------
- 
Gb-------2-------5-----------------0---0-0-0-0-0-0-0-0-0-0---------------------
- 
Db-----2---2---------0-------------2---2-2-2-2-2-2-2-2-2-2---------------------
- 
Ab---0-------------0-------0-----0-2---2-2-2-2-2-2-2-2-2-2---------------------
- 
Eb---------------------------------0---0-0-0-0-0-0-0-0-0-0---------------------
- 
 
Eb---0--0-0-0-0---------3--3-3-3-3------------------------7-7------------------
- 
Bb---0--0-0-0-0---------3--3-3-3-3--7--7-7-7--5--5-5-5----8-8------------------
-
Gb---0--0-0-0-0---------4--4-4-4-4--7--7-7-7--5--5-5-5----9-9---5-5-5-5-/-7-7-7
- 
Db---2--2-2-2-2---------5--5-5-5-5--7--7-7-7--5--5-5-5----9-9---5-5-5-5-/-7-7-7
- 
Ab---2--2-2-2-2--0-X-X--5--5-5-5-5--5--5-5-5--3--3-3-3----7-7---3-3-3-3-/-5-5-5
- 
Eb---0--0-0-0-0--2-X-X--3--3-3-3-3---------------------0-----------------------
-  

Eb---0--0-0-0-0---------3--3-3-3-3---------------------------------------------
 
Bb---0--0-0-0-0---------3--3-3-3-3--7--7-7-7--5--5-5-5-----8------10----8------
- 
Gb---0--0-0-0-0---------4--4-4-4-4--7--7-7-7--5--5-5-5------------------0------
- 
Db---2--2-2-2-2---------5--5-5-5-5--7--7-7-7--5--5-5-5---5---5---7---7---------
- 
Ab---2--2-2-2-2--0-X-X--5--5-5-5-5--5--5-5-5--3--3-3-3-------------------------
- 
Eb---0--0-0-0-0--2-X-X--3--3-3-3-3---------------------0------0----------------
-
 




Eb---3---3---2---2----10---7p5---7-----7-----7--3---3---2---2------------------
- 
Bb-----------------------0-----0---0-----0------------------------5-----5------
- 
Gb-----0---0---0---0-----------------0-----0------0---0---0---0-----4----------
- 
Db--------------------------------------------------------------2-----2--------
- 
Ab-----------------------------------------------------------------------------
- 
Eb-----------------------------------------------------------------------------
- 

Eb---7---7-7---7-7---8---8-8---8-8---7--5--3---3-3---3-3---5---5-5---5-5---2h3-
0 
Bb-----5-----5-----5---5-----5-----5-5--5----5-----5-----5---5-----5-----5-----
- 
Gb-----------------------------------------------------------------------------
- 
Db-----------------------------------------------------------------------------
- 
Ab-----------------------------------------------------------------------------
- 
Eb-----------------------------------------------------------------------------
|  

Eb---0-0-0-0-0--7---7-7---7-7---8---8-8---8-8-----10---8--7----7-7-------------
- 
Bb---5-5-5-5-5----5-----5-----5---5-----5-----5----5---5--5--5-----5-----------
- 
Gb-----------------------------------------------------------------------------
- 
Db-----------------------------------------------------------------------------
- 
Ab-----------------------------------------------------------------------------
- 
Eb-----------------------------------------------------------------------------
-  

Eb-----------5---------2------5-----------7------------------------------------
- 
Bb-----5-------5---------3------3-----------8----------------------------------
- 
Gb-------2-------5----------------2--0~-------9--0-----------------------------
- 
Db---------2---------0-----0---------2~----------2-----------------------------
- 
Ab---0-------------0-----------------2~----------2-----------------------------
- 
Eb-----------------------------------0~----------0-----------------------------
- 

Eb---0--0-0-0-0---------3--3-3-3-3------------------------7-7------------------
| 
Bb---0--0-0-0-0---------3--3-3-3-3--7--7-7-7--5--5-5-5----8-8------------------
- 
Gb---0--0-0-0-0---------4--4-4-4-4--7--7-7-7--5--5-5-5----9-9---5-5-5-5-/-7-7-7
- 
Db---2--2-2-2-2---------5--5-5-5-5--7--7-7-7--5--5-5-5----9-9---5-5-5-5-/-7-7-7
- 
Ab---2--2-2-2-2--0-X-X--5--5-5-5-5--5--5-5-5--3--3-3-3----7-7---3-3-3-3-/-5-5-5
- 
Eb---0--0-0-0-0--2-X-X--3--3-3-3-3---------------------0-----------------------
-  

Eb---0--0-0-0-0---------3--3-3-3-3---------------------------------------------
- 
Bb---0--0-0-0-0---------3--3-3-3-3--7--7-7-7--5--5-5-5-----8------10----8------
- 
Gb---0--0-0-0-0---------4--4-4-4-4--7--7-7-7--5--5-5-5------------------0------
- 
Db---2--2-2-2-2---------5--5-5-5-5--7--7-7-7--5--5-5-5---5---5---7---7---------
- 
Ab---2--2-2-2-2--0-X-X--5--5-5-5-5--5--5-5-5--3--3-3-3-------------------------
- 
Eb---0--0-0-0-0--2-X-X--3--3-3-3-3---------------------0------0----------------
-  

Eb-----------------------------------------------------------------------------
- 
Bb-----------------------------------------------------------------------------
- 
Gb-----0-----0--------0-----0------0-----0--------0-----0----------------------
- 
Db-------4-----4--------4-----4------4-----4--------4-----4--------------------
- 
Ab---------------5--------5------------------5---------------------------------
- 
Eb---0-----0--------3------------0-----0--------5-----3------------------------
- 

Eb-----------------------------------------------------------------------------
- 
Bb-----------------------------------------------------------------------------
- 
Gb-----0-----0--------0-----0------0-----0--------0-----0----------------------
- 
Db-------4-----4--------4-----4------4-----4--------4-----4--------------------
- 
Ab---------------5--------5------------------5---------------------------------
- 
Eb---0-----0--------3------------0-----0--------5-----3------------------------
-  

Eb-----------------------------------------------------------------------------
- 
Bb-----------------------------------------------------------------------------
- 
Gb-----0-----0-------0-----0------0-----0-------0-----0------------------------
- 
Db-------4-----4-------4-----4------4-----4-------4-----4----------------------
- 
Ab---------------5-------5------------------5----------------------------------
- 
Eb---0-----0-------3------------0-----0-------5-----3--------------------------
- 
 
Eb-----------------------------------------------------------------------------
- 
Bb-----------------------------------------------------------------------------
- 
Gb-----0-----0-------0-----0------0-----0-------0-----0------------------------
- 
Db-------4-----4-------4-----4------4-----4-------4-----4----------------------
- 
Ab---------------5-------5------------------5----------------------------------
- 
Eb---0-----0-------3------------0-----0-------5-----3--------------------------
-  

Eb-----------------------------------------------------------------------------
- 
Bb-----------------------------------------------------------------------------
- 
Gb-----0-----0-------0-----0-----0///-0///-0///-0///---9///-11//-12//-14//-----
- 
Db-------4-----4-------4-----4---2///-4///-5///-9///---X///-X///-X///-X///-----
- 
Ab---------------5-------5-----------------------------7///-7///-7///-7///-----
- 
Eb---0-----0-------3-----------------------------------0///-0///-0///-0///-----
-  

Eb---0--0-0-0-0---------3--3-3-3-3------------------------7-7------------------
- 
Bb---0--0-0-0-0---------3--3-3-3-3--7--7-7-7--5--5-5-5----8-8------------------
- 
Gb---0--0-0-0-0---------4--4-4-4-4--7--7-7-7--5--5-5-5----9-9---5-5-5-5-/-7-7-7
- 
Db---2--2-2-2-2---------5--5-5-5-5--7--7-7-7--5--5-5-5----9-9---5-5-5-5-/-7-7-7
- 
Ab---2--2-2-2-2--0-X-X--5--5-5-5-5--5--5-5-5--3--3-3-3----7-7---3-3-3-3-/-5-5-5
- 
Eb---0--0-0-0-0--2-X-X--3--3-3-3-3---------------------0-----------------------
-  

Eb---0--0-0-0-0---------3--3-3-3-3----------------------7--7-------------------
- 
Bb---0--0-0-0-0---------3--3-3-3-3--7--7-7-7--5--5-5-5--8----8-----------------
- 
Gb---0--0-0-0-0---------4--4-4-4-4--7--7-7-7--5--5-5-5--9------9---------------
- 
Db---2--2-2-2-2---------5--5-5-5-5--7--7-7-7--5--5-5-5--9--------9-------------
- 
Ab---2--2-2-2-2--0-X-X--5--5-5-5-5--5--5-5-5--3--3-3-3--7----------7-----------
- 
Eb---0--0-0-0-0--2-X-X--3--3-3-3-3----------------------0----------------------
-  

Eb-------------------------------------------------------7---------------------
- 
Bb---------------------------------------------------------8-------------------
- 
Gb------------0----------------0---------0-----0-------------9-----------------
- 
Db-------0------0--------0-------0---0-----0-----5---4---------9---------------
- 
Ab-----5------------5--5---5-5-----5---------5-----5---------------------------
- 
Eb---3------3-----3--------------------0---------------------------------------
- 
 
Eb-----------------------------------------------------------------------------
- 
Bb-----------------------------------------------------------------------------
- 
Gb------------0----------------0---------0-----0-------------------------------
- 
Db-------0------0--------0-------0---0-----0-----5---4~------------------------
- 
Ab-----5------------5--5---5-5-----5---------5-----5---------------------------
- 
Eb---3------3-----3--------------------0---------------------------------------
- 
 
 
 





Comentarios del colaborador: dejen sugerencias de canciones a mi correo

Calificar esta versión:
Aviso: Este fichero es trabajo propio de su transcriptor y representa su interpretación personal de la canción. El material contenido en esta página es para exclusivo uso privado, por lo que se prohibe su reproducción o retransmisión, así como su uso para fines comerciales.