Girls Not Grey, Afi (tablatura)

Autor: gonzalo tapia aguirre | 24783 visualizaciones



Main Riff 1
e|----------------------------------------------|
B|----------------------------------------------|
G|---------9---9--9-x-x-------------------------|
D|-6--x-x--9---9--9-x-x--4--x-x--6---6--6-x-x---|
A|-6--x-x--7---7--7-x-x--4--x-x--6---6--6-x-x---|
E|-4--x-x----------------2--x-x--4---4--4-x-x---|


 Intro Riff 1
e|------------------------------------------------------------|
B|------------------------------------------------------------|
G|-/8-------------------------------------/8--8---------------|
D|-----6--9----9--9---8p6---6---6--6--------------9--9--9-----|
A|------------------------9-----------------------------------|
E|------------------------------------------------------------|

e|---------------------|
B|---------------------|
G|---------------------|
D|-9--8---4--6---------|
A|-9--8---4--6---/2----|
E|-7--6---2--4-------4-|


 Verse
e|----------------------------------------------------------------|
B|----------------------------------------------------------------|
G|----------------------------------------------------------------|
D|-9--9--9-x-x-11--11-11--11-11-x-x-9--9--9-x-x-8--8-8--8-8-x-x---|
A|-7--7--7-x-x-9---9--9---9--9--x-x-7--7--7-x-x-6--6-6--6-6-x-x---|
E|----------------------------------------------------------------|

e|-------------------------------------------------------------------|
B|-------------------------------------------------------------------|
G|-------------------------------------------------------------------|
D|-9--9--9-x-x-11--11-11--11-11-x-x-11--11--11-x-x-9--9-9--9-9-x-x---|
A|-7--7--7-x-x-9---9--9---9--9--x-x-11--11--11-x-x-7--7-7--7-7-x-x---|
E|-------------------------------------------------------------------|


 Chorus
e|------------------------------------------------------------|
B|------------------------------------------------------------|
G|-9----------------------------------------------------------|
D|-9---9---9--9-x-x-4---6---6--6-x-x--------------------------|
A|-7---9---9--9-x-x-4---6---6--6-x-x--------------------------|
E|-----7---7--7-x-x-2---4---4--4-x-x--------------------------|

e|---------------------|  <====Play last time through
B|---------------------|
G|-------------11-(8x)-|
D|----8-----8--x-------|
A|-8--8--8--8--8-------|
E|-6--6--6--6----------|

 Bridge Riff 1
e|---------------------------------------------------------|
B|---------------------------------------------------------|
G|-9--9--9-x-x-8--8-8--8-----------------------------------|
D|-9--9--9-x-x-9--9-9--9-x-x-4--4--4-x-x-6--6-6--6-6-x-x---|
A|-7--7--7-x-x-7--7-7--7-x-x-4--4--4-x-x-6--6-6--6-6-x-x---|
E|---------------------------2--2--2-x-x-4--4-4--4-4-x-x---|

e|----------|  <====Play last time through
B|----------|
G|----------|
D|----------|
A|-x-x-x-8--|
E|-x-x-x-6--|


 Bridge Riff 2
e|----------------------------------------------|
B|----------------------------------------------|
G|-------------11--11-11--11-11--x-x------------|
D|-9--9--9-x-x-11--11-11--11-11--x-x-9-(10x)----|
A|-9--9--9-x-x-9---9--9---9--9---x-x-9----------|
E|-7--7--7-x-x-----------------------7----------|

e|--------------------------------|
B|--------------------------------|
G|-9--9--9-x-x-8--8-8--8-8--------|
D|-9--9--9-x-x-9--9-9--9-9-x-x-4--|
A|-7--7--7-x-x-7--7-7--7-7-x-x-4--|
E|-----------------------------2--|


 Bridge Riff 3
e|-----------------------------|
B|--4-----4--------------4-----|
G|----4-------3--4-------------|
D|-6-----6------------4-----3--|
A|-----------------------------|
E|-----------------------------|


 Solo:
e|--------------------------------------------------------------|
B|---16------16---------------16---------16------16-------------|
G|------16--------16-------------15---------16--------16--------|
D|-18------18--------18-18-16----------18------18--------18-18--|
A|--------------------------------------------------------------|
E|--------------------------------------------------------------|

e|--------------------------------------------------------------|
B|-19---------17------------16------16----------------16--------|
G|------16---------16----------16---------16-------------15-----|
D|---------18---------18-18-------18---------18-18-16-----------|
A|--------------------------------------------------------------|
E|--------------------------------------------------------------|

e|--------------------------------------------------------------|
B|---16------16---------------16---------16------16-------------|
G|------16--------16-------------15---------16--------16--------|
D|-18------18--------18-18-16----------18------18--------18-18--|
A|--------------------------------------------------------------|
E|--------------------------------------------------------------|

e|--------------------------------------------------------------|
B|-19-------19-------19----17-------17-------17-----------------|
G|----16-------16-------16----16-------16-------16--------------|
D|-------18-------18-------------18-------18--------------------|
A|--------------------------------------------------------------|
E|--------------------------------------------------------------|

e|----------------------------------|
B|----------------------------------|
G|-13-13-x-x-11-11-x-x-9-9-x-x-8-8--|
D|-13-13-x-x-11-11-x-x-9-9-x-x-8-8--|
A|-11-11-x-x-9--9--x-x-7-7-x-x-6-6--|
E|----------------------------------|

  Outro
e|---------------------------------|
B|---------------------------------|
G|---------9---9--9-x-x------------|
D|-6--x-x--9---9--9-x-x-9--8--4-6--|
A|-6--x-x--7---7--7-x-x-9--8--4-6--|
E|-4--x-x---------------7--6--2-4--|

Intro:
Main Riff (2x)
Main Riff (2x) w/Intro Riff

Verse(3x) (mute strings 2nd time)
Chorus(4x)

Verse(3x) (mute strings 2nd time)
Chorus(4x)

Bridge Riff 1 (2x)
Bridge Riff 2 (1x)
Bridge Riff 3 (4x)

Solo

Chorus(4x)
Main Riff (3x)






Calificar esta versión:
Aviso: Este fichero es trabajo propio de su transcriptor y representa su interpretación personal de la canción. El material contenido en esta página es para exclusivo uso privado, por lo que se prohibe su reproducción o retransmisión, así como su uso para fines comerciales.