No Creo En "nosotros", Adiccion Dermika (acordes)

Autor: jesus23000 | 42823 visualizaciones

a5b5csos5dsos5e5


NO CREO EN NOSOTROS ADICCION DERMIKA
INTRO:


RIFF
e.--------------------------------------------------------------
B.---8-8-8---8-8-8---8-8-8---8-8-8------------------------------
G.---6-6-6---6-6-6---6-6-6---6-6-6-------------------11-11-11---
D.-----------------------------------9-9-9---9-9-9---9--9--9----
A.-----------------------------------7-7-7---7-7-7--------------
E.--------------------------------------------------------------


----------------I
----------------I
--8-8-8---------I  X2
--9-9-9---------I
----------------I
----------------I

VA ACOMPAÑADO DE ESTOS ACORDES:ESCUCHEN LA CANCION Y NOTARAN EL RASGUE Y EL CAMBIO DE ACORDE JUNTO CON EL RIFF DE ARRIBA


     C#5            A5            E5          B5
e.-----------------------------------------------------I
B.-----------------------------------------------------I
G.--666666666--------------------99999-----------------I  X3
D.--666666666-----7777777--------99999-------99999-----I
A.--444444444-----7777777--------77777-------99999-----I
E.----------------5555555--------------------77777-----I


ESTO VA EN EL VERSO 1

e.-----------12-----------12---------13----------15---I
B.--------13-----------13----------13---------13------I
G.--12-12--------12-12-------12-12------12-12---------I X2 
D.----------------------------------------------------I
A.----------------------------------------------------I
E.----------------------------------------------------I

A5                   B5
Fue algo mas lo que esperaba
C#5            B5        A5                        C#5 B5 
talbez no tenga una razon para quedarme junto a ty
A5     B5        C#5                      B5 
estas vez no recuerdo como fue la ultima vez
            D#5  E5
te marchaste
A5      B5       C#5                      B5
y no se porque no puedo olvidarte porque no puedo sacarte d mi 
     A5  B5
ser
A5         B5             C#5
hoy no quiero estar sin ty
             B5
me estoy cansado de existir
A5      B5          C#5
estoy apunto de morir
      B5                         A5  B5
mi corazon muere por dentro lento
 C#5   C#5    C#5        C#5
[hoy quiero verte quiero verte]

        C#5           A5           E5       B5 
e.------------------------------------------------I
B.------------------------------------------------I
G.----888888888888--------------11-11-11---888----I  X2
D.--6---------------99999999--9-----------9-------I
A.-----------------7------------------------------I
E.------------------------------------------------I

A5  B5    C#5     B5
ya no quiero seguir a tado a ty
A5  B5     C#5     B5
pero siento no puedo resistir
A5               B5                      C#5            D#5 E5
espero verte otra vez para desirte lo que SIENTO realidad
A5                B5                      C#5
espero que quieras volver tu sabez yo te esperare
        B5            A5   B5
YO TE ESPERARE!!!!!



A5         B5             C#5
hoy no quiero estar sin ty
             B5
me estoy cansado de existir
A5      B5          C#5
estoy apunto de morir
      B5                         A5  B5
mi  corazon muere por dentro lento
 C#5   C#5    C#5        C#5
[hoy quiero verte quiero verte]

ESTO VA CON ESTOS ACORDES C#5  A5  E5  B5 ESCUCHEN LA CANCION PARA QUE VEAN DONDE VAN Y LOS CAMBIOS


e.----------------I
B.----------------I
G.------8-8-8/9---I  X  32
D.--6-6-----------I
A.----------------I
E.----------------I


A5         B5             C#5
hoy no quiero estar sin ty
             B5
me estoy cansado de existir
A5      B5          C#5
estoy apunto de morir
      B5                         A5  B5
mi corazon muere por dentro lento

A5               B5       C#5   B5    
HOY YA NA QUIERO ESTAR ASI 
[NO NO QUIERO NO COMPRENDO]
A5                B5       C#5   B5 
HOY YA NO QUIERO ESTAR SIN TI 
[PORQUE TE EXTRAÑO TANTO]
                   A5
no puedo estar sin ty

A5  B5  C#5 B5 E5 

ESPERO QUE LES GUSTE





Calificar esta versión:
Aviso: Este fichero es trabajo propio de su transcriptor y representa su interpretación personal de la canción. El material contenido en esta página es para exclusivo uso privado, por lo que se prohibe su reproducción o retransmisión, así como su uso para fines comerciales.