En La Cima Sin Ti, Adammo (tablatura)

Autor: danielito1 | 38223 visualizaciones

INTRO: Dsus2 - D - Asus2 - A

e |----------------------------------------------|
B |----------------------------------------------|
G |---9p7--7--9p7--7--11p7--7--11p7--7--11p7--7--|   ( 2 VECES )
D |----------------------------------------------|
A |----------------------------------------------|
E |----------------------------------------------|

e |----------------------------------------------|
B |----------------------------------------------|
G |----------------------------------------------|   ( 2 VECES )
D |---9p7--7--9p7--7--11p7--7--11p7--7--11p7--7--|
A |----------------------------------------------|
E |----------------------------------------------|




   Dsus2  D    Dsus2
Sentado,
     D             Asus2    A    Asus2
Brillando en esta cima sin ti,
 A               Dsus2     D      Dsus2     D
Rodeado de mil sueños al fin,
          Asus2    A     Asus2      A
Estoy callado por ti
    Dsus2 D    Dsus2
Callado
   D             Asus2          A     Asus2
Mirando del principio hasta el fin?
 A                 Dsus2    D      Dsus2
La historia que quisimos vivir,
 D               Asus2     A     Asus2     A
Recuerdos que quisimos sentir
  D         A
y hoooooooyyyy

[Coro]
     D                 A
no puedo seguir y no puedo pensar
      G
Si tú no estás aquí,
      A
Solo queda recordarte en silencio
   D
y disimular
      A
El dolor que hay en mí
          G             A ?-- Esta nota  A solo se toca una vez
y aunque todo está mal,

Habrá luz para mí.



e |----------------------------------------------|
B |----------------------------------------------|
G |---9p7--7--9p7--7--11p7--7--11p7--7--11p7--7--|
D |----------------------------------------------|
A |----------------------------------------------|
E |----------------------------------------------|

e |----------------------------------------------|
B |----------------------------------------------|
G |---9p7--7--9p7--7-------12-A------------------|
D |----------------------------------------------|
A |----------------------------------------------|
E |----------------------------------------------|

         ( 12 A  es un Harmonico en el traste 12 )


   Dsus2 D     Dsus2
Callado
 D                 Asus2     A     Asus2
Sentado en esta esquina sin ti,
 A                Dsus2      D    Dsus2
Luchando con mis sueños por ti
 D                Asus2    A     Asus2    A
deseando que estuvieras aquí
   D        A     D       A
y hooooooyyyy, y hoooooyyyy

[Coro]
     D                 A
no puedo seguir y no puedo pensar
      G
Si tú no estás aquí,
      A
Solo queda recordarte en silencio
   D
y disimular
      A
El dolor que hay en mí
          G             A <-- Esta nota  G solo se toca una vez
y aunque todo está mal,


Em              F# G    ( el F# solo se toca 1 vez)
 Quien te crees para renunciar
   D
 al amor   oh no oh nooo.!!

Em              F# G    ( el F# solo se toca 1 vez)
 Quien te crees para rechazar
     D
 a mi amor  oh no oh nooo ohh,!!

SOLO
****

e|-----------------------------------------|
B|-----------------------------------------|
G|---9b11~~~---9b11-9b11~~--9b11r9--7--9~~-|
D|-----------------------------------------|
A|-----------------------------------------|
E|-----------------------------------------|

e|-------------------------------------------------------------|
B|-------------------------------------------------------------|
G|---9b11~~~---9b11-9b11~~--9b11r9p7/6--7p6-7--(7)-p6/5--5~~~~-|
D|-------------------------------------------------------------|
A|-------------------------------------------------------------|
E|-------------------------------------------------------------|


e|-------------| e|-------------| e|-------------| e|----------|
B|--11b12pb12--| B|--13b14pb14--| B|--14b15pb15--| B|--21b22---|
G|-------------| G|-------------| G|-------------| G|----------|
D|-------------| D|-------------| D|-------------| D|----------|
A|-------------| A|-------------| A|-------------| A|----------|
E|-------------| E|-------------| E|-------------| E|----------|
  ( 4 veces )       ( 4 veces )      ( 4 veces )     ( 8 veces )





     D                 A
no puedo seguir y no puedo pensar
      G
Si tú no estás aquí,
      A
Solo queda recordarte en silencio
   D
y disimular
      A
El dolor que hay en mí
          G              A <-- Esta nota  A solo se toca una vez
y aunque todo está mal,

Habrá luz para mí.

e |----------------------------------------------|
B |----------------------------------------------|
G |---9p7--7--9p7--7--11p7--7--11p7--7--11p7--7--|   ( 2 VECES )
D |----------------------------------------------|
A |----------------------------------------------|
E |----------------------------------------------|

e |----------------------------------------------|
B |----------------------------------------------|
G |----------------------------------------------|   ( 2 VECES )
D |---9p7--7--9p7--7--11p7--7--11p7--7--11p7--7--|
A |----------------------------------------------|
E |----------------------------------------------|



?.no puedo seguir??
??? no kiero  pensar ???
Calificar esta versión:
Aviso: Este fichero es trabajo propio de su transcriptor y representa su interpretación personal de la canción. El material contenido en esta página es para exclusivo uso privado, por lo que se prohibe su reproducción o retransmisión, así como su uso para fines comerciales.