For Those About To Rock (we Salute You), Ac/dc (tablatura)

Autor: xaris | 15502 visualizaciones

For Those About To Rock (We Salute You)
AC/DC

Intro (Angus):

e|-11-x-11-11-x-11-11-x-11-11-x-11-11-x-11-11-10-x-10-10-x-10-14-x-14-12-x-12-12-x-12-x|
B|-0--0-0--0--0-0--0--0-0--0--0-0--0--0-0--0--0--0-0--0--0-0--0--0-0--0--0-0--0--0-0--0|
G|-11-x-11-11-x-11-11-x-11-11-x-11-11-x-11-11-11-x-11-11-x-11-11-x-11-11-x-11-11-x-11-x| X5
D|-------------------------------------------------------------------------------------|
A|-------------------------------------------------------------------------------------|
E|-------------------------------------------------------------------------------------|

e|-11-x-11-11-x-11-11-x-11-11-x-11-11-x-11-11-10-x-10-10-x-10-14-x-14-12-x-12-12-12-12-12|
B|-0--0-0--0--0-0--0--0-0--0--0-0--0--0-0--0--0--0-0--0--0-0--0--0-0--0--0-0--0--0--0--0-|
G|-11-x-11-11-x-11-11-x-11-11-x-11-11-x-11-11-11-x-11-11-x-11-11-x-11-11-x-11-11-11-11-11|
D|---------------------------------------------------------------------------------------|
A|---------------------------------------------------------------------------------------|
E|---------------------------------------------------------------------------------------|

e|-12-12-12-12-12-12-12-12-12-12-12-12-12-12-12-12-|
B|-0--0--0--0--0--0--0--0--0--0--0--0--0--0--0--0--|
G|-11-11-11-11-11-11-11-11-11-11-11-11-11-11-11-11-|
D|-------------------------------------------------|
A|-------------------------------------------------|
E|-------------------------------------------------|

e|----------------0-|-------------------------|
B|-----3-3--------0-|-----3-3-----12-12-12-12-|
G|-4---0-2--1-0-1-1-|-4---0-2-----11-11-11-11-| x2
D|-4-4-0-0--2-0-2-2-|-4-4-0-0--/9-9--9--9--9--|
A|-2-0-x-x----------|-2-0-x-x-----------------|
E|-----3-2b---------|-----3-2b----------------|

Intro (Malcom):

e|--------------|-----------|--------------|-------------|
B|---------3----|----3-3----|-----------3--|------3-3----|
G|-4-----0-2--1-|-4--0-2--1-|-4-------0-2--|-4----0-2--1-|
D|-4---0---0--2-|-4--0-0--2-|-4-4---0---0--|-4-4--0-0--2-|
A|-2-------x--2-|-2--x-x--2-|-2-0-------x--|-2-0--x-x--2-|
E|---3-----2b-0-|----3-2b-0-|-----3-----2b-|------3-2b-0-|

e|----------|
B|-----3-3--|
G|-4---0-2--| x4
D|-4-4-0-0--|
A|-2-0-x-x--|
E|-----3-2b-|

Verso (Angus):

e|------------------3---|
B|----3-3-3---------3---|
G|-4/-2-2-2-2--2-1--0-1-| x4
D|-4/-4-4-4-2--2-2--0-2-|
A|-2/-------0--0-2--x-2-|
E|---------------0--3-0-|

Verso (Malcom):

e|------------------3---|
B|----3-3-3---------3---|
G|-4/-2-2-2-2--2-1--0-1-| x4
D|-4/-4-4-4-2--2-2--0-2-|
A|-2/-------0--0-2--x-2-|
E|---------------0--3-0-|

Coro (Malcom):

e|----------|
B|-----3-3--|
G|-4---0-2--| x2
D|-4-4-0-0--|
A|-2-0-x-x--|
E|-----3-2b-|

Coro (Angus):

e|----------------0-|----------|
B|-----3-3--------0-|-----3-3--|
G|-4---0-2--1-0-1-1-|-4---0-2--| 
D|-4-4-0-0--2-0-2-2-|-4-4-0-0--|
A|-2-0-x-x----------|-2-0-x-x--|
E|-----3-2b---------|-----3-2b-|

Verso 2 (Malcom):

e|------------------3---|
B|----3-3-3---------3---|
G|-4/-2-2-2-2--2-1--0-1-| x2
D|-4/-4-4-4-2--2-2--0-2-|
A|-2/-------0--0-2--x-2-|
E|---------------0--3-0-|

Verso 2 (Angus):

e|------------------3---|
B|----3-3-3---------3---|
G|-4/-2-2-2-2--2-1--0-1-| x2
D|-4/-4-4-4-2--2-2--0-2-|
A|-2/-------0--0-2--x-2-|
E|---------------0--3-0-|

Coro 2 (Malcom):

e|----------|
B|-----3-3--|
G|-4---0-2--| x4
D|-4-4-0-0--|
A|-2-0-x-x--|
E|-----3-2b-|

Coro 2 (Angus):

e|----------------0-|-------------------------|----------------0-|-----------------|
B|-----3-3--------0-|-----3-3-----12-12-12-12-|-----3-3--------0-|-----3-3--12-----|
G|-4---0-2--1-0-1-1-|-4---0-2-----11-11-11-11-|-4---0-2--1-0-1-1-|-4---0-2--14b16~-|
D|-4-4-0-0--2-0-2-2-|-4-4-0-0--/9-9--9--9--9--|-4-4-0-0--2-0-2-2-|-4-4-0-0---------|
A|-2-0-x-x----------|-2-0-x-x-----------------|-2-0-x-x----------|-2-0-x-x---------|
E|-----3-2b---------|-----3-2b----------------|-----3-2b---------|-----3-2b--------|

Malcom (Base):

e|----3----|
B|----3--3-|
G|-2--0--2-|
D|-2--0--4-|
A|-0--x----|
E|----3----|

Solo:

e|-------|
B|-12----|
G|-14b16-|
D|-------|
A|-------|
E|-------|

e|-----------|
B|-8b10-8b10-|
G|-----------|
D|-----------|
A|-----------|
E|-----------|

e|-5----------------|
B|--8p5---5---------|
G|-----7b9-7b9r7p5--|
D|----------------7-|
A|------------------|
E|------------------|


e|-----------|
B|-----------|
G|-----------|
D|--5--x--7--|
A|-----------|
E|-----------|

e|-------------|
B|-------------|
G|-7b9r7p5-7-7-|
D|-------------|
A|-------------|
E|-------------|

e|-------5-----|
B|-----5---8p5-|
G|-7b9---------|
D|-------------|
A|-------------|
E|-------------|

e|-------|
B|-----7-|
G|-7b9-7-|
D|-------|
A|-------|
E|-------|

e|-----------------------------------------------|
B|-13b15-15r13-10--12b13r12p10-12b13-12b13r12p10-|
G|-----------------------------------------------|
D|-----------------------------------------------|
A|-----------------------------------------------|
E|-----------------------------------------------|

e|------12------------|
B|-12b14--12b13-12b14-|
G|--------------------|
D|--------------------|
A|--------------------|
E|--------------------|

e|-------------------------|
B|-13b15-13b15-13b15r13p10-|
G|-------------------------|
D|-------------------------|
A|-------------------------|
E|-------------------------|

e|----------|
B|-13-13b15-|
G|----------|
D|----------|
A|----------|
E|----------|

e|------------------------------|
B|-12b13r12p10-10--10-10-----10-|
G|---------------11-----12b14---|
D|------------------------------|
A|------------------------------|
E|------------------------------|

e|---------------------------|
B|-12b13-12------------------|
G|---------12--7-5-7--5------|
D|---------------------7-7-7-|
A|---------------------------|
E|---------------------------|

e|-------------------------|
B|-20-20b22-20-20b22-20b22-|
G|-------------------------|
D|-------------------------|
A|-------------------------|
E|-------------------------|

Interludio (Todas la guitarras):

e|---|
B|---|
G|-4-|
D|-4-|
A|-2-|
E|---|

e|-3-3-2-------|
B|-3-3-3-------|
G|-0-0-2-2--4--|
D|-0-0-0-2--4--|
A|-x-x---0--2--|
E|-3-3---------|

Malcom (Base 2):

e|-3-|
B|-3-|
G|-0-|
D|-0-|
A|-x-|
E|-3-|

e|---|
B|---|
G|-2-|
D|-2-|
A|-0-|
E|---|

e|----3-3-2---|
B|----3-3-3---|
G|-4--0-3-3-2-|
D|-4--0-0-0-2-|
A|-2--x-x---0-|
E|----3-3-----|

e|-3-3-2---|
B|-3-3-3---|
G|-0-0-2-2-| 
D|-0-0-0-2-|
A|-x-x---0-|
E|-3-3-----|

Solo 2:

e|--------|
B|-15-----|
G|-17b19--|
D|--------|
A|--------|
E|--------|

e|---------|
B|-14------|
G|-16b18---|
D|---------|
A|---------|
E|---------|


e|---------|
B|--12-----|
G|--14b16--|
D|---------|
A|---------|
E|---------|

e|----------------------|
B|-8-----8-----7----5---|
G|-10b12-10b12-9b11-7b9-|
D|----------------------|
A|----------------------|
E|----------------------|

e|---|
B|---|
G|-4-|
D|---|
A|---|
E|---|

e|-------------------------|
B|-12----12----15----17----|
G|-14b16-14b16-17b19-19b21-|
D|-------------------------|
A|-------------------------|
E|-------------------------|

e|----------------------------------|
B|----------------10b12-10b12-10b12-|
G|-9b11-9b11-9b11-------------------|
D|----------------------------------|
A|----------------------------------|
E|----------------------------------|

e|--------------------------------------------|
B|--------------------10b12-10b12-10b12-10b12-|
G|-9b11-9b11-9b11-9b11------------------------|
D|--------------------------------------------|
A|--------------------------------------------|
E|--------------------------------------------|

e|---------|
B|---------|
G|---------|
D|-9-9-9-9-|
A|---------|
E|---------|

e|-------|
B|-10b12-|
G|-------|
D|-------|
A|-------|
E|-------|

e|-------7-------------------------------------|
B|-----7--10p7----7----------------------------|
G|-9b11--------10---10p9p7--9------------------|
D|------------------------9---9--7-9p7---9---7-|
A|-------------------------------------9---9---|
E|---------------------------------------------|

e|--------|
B|--10b12-|
G|--------|
D|--------|
A|--------|
E|--------|

e|--------------------------------------|
B|-15b17-15-15b17--17----15-17b19-17b19-|
G|--------------------16----------------|
D|--------------------------------------|
A|--------------------------------------|
E|--------------------------------------|

e|-17-------|
B|----17b19-|
G|----------|
D|----------|
A|----------|
E|----------|

e|-------------------------|
B|-17b19r17p15----17-15----|
G|-------------16-------16-|
D|-------------------------|
A|-------------------------|
E|-------------------------|


e|-----------------------------------------17------|
B|---19b21-19b21r19-17-15-17b19r17p15-17b19--17b19-|
G|-16----------------------------------------------|
D|-------------------------------------------------|
A|-------------------------------------------------|
E|-------------------------------------------------|

e|-17----|
B|-17b19-|
G|-------|
D|-------|
A|-------|
E|-------|

e|-17----------|
B|-17b19r17p15-|
G|-------------|
D|-------------|
A|-------------|
E|-------------|

e|----------------|
B|-22b24----------|
G|-------21b23-21-|
D|----------------|
A|----------------|
E|----------------|

e|----------------------------------|
B|-22b24-22b24r22p19-22b24----------|
G|-------------------------21b23-21-|
D|----------------------------------|
A|----------------------------------|
E|----------------------------------|


e|-22b24-22b24r22p19-----------------------|
B|-------------------22b24--15----14-------|
G|--------------------------17b29-16b18-14-|
D|-----------------------------------------|
A|-----------------------------------------|
E|-----------------------------------------|

Final (Todas las guitarras):

e|---|
B|---|
G|-4-|
D|-4-|
A|-2-|
E|---|

e|---|
B|---|
G|-2-|
D|-2-|
A|-0-|
E|---|

e|-3-|
B|-3-|
G|-0-|
D|-0-|
A|-x-|
E|-3-|

e|---|
B|-3-|
G|-2-|
D|-0-|
A|-x-|
E|-2-|

e|---|
B|---|
G|-1-|
D|-2-|
A|-2-|
E|-0-|

e|----|
B|----|
G|-4/-|
D|-4/-|
A|-2/-|
E|----|
Calificar esta versión:
Aviso: Este fichero es trabajo propio de su transcriptor y representa su interpretación personal de la canción. El material contenido en esta página es para exclusivo uso privado, por lo que se prohibe su reproducción o retransmisión, así como su uso para fines comerciales.