Big Jack, Ac/dc (tablatura)

Autor: angus/young | 17796 visualizaciones

tema: big jack (ac/dc)
album: black ice (2008)
compuesta por: angus young, malcolm young y brian jhonson
sacada por: mi, un amigo, y un tipo de ultimate-guitar.com

b=estirar cuerda
/=deslizar el dedo
p=sin levantar los dedos
E=Mi
B=Si
G=sol
D=re
A=la

INTRO:

e|----------------------
B|----------------------
G|-4----4--------4------
D|-4-2--4-2----2-4------
A|-2-2--2-2----2-2------
E|---0----0----0--------

Versos:
e|-----------------/
B|-----------------/
G|-----------------/
D|-4-4----0--------/
A|-0/2-2----4-2----/
E|-----0-----------/ y luego un verso

e|----------/
B|----------/
G|----------/
D|-x-4------/
A|-x-2-2----/
E|-----0----/ y luego otro verso

e|-----------------/
B|-----------------/
G|-----------------/
D|-4-4-4-4-4-4-----/
A|-0/2-0/2-0/2-----/
E|-----------------/ esto a mitad del verso

e|-----------------/
B|-----------------/
G|-----------------/
D|-4-4----0--------/
A|-0/2-2----4-2----/
E|-----0-----------/ y esto de nuevo antes del ke sigue.

todo es 4 veces luego empieza con este riff:

e|----------------------
B|----------------------
G|----------------------
D|-4-4-4-4-4-----4-4----
A|-2-2-0/2-2-5-4-2-2----
E|---------------------- una vez entre cada verso (4 veces)

   D9
e|-----0-0-0-0-0-0-0----
B|-3-3-3-3-3-3-3-3-3----
G|-2-2-2-2-2-2-2-2-2----
D|-0-0-0-0-0-0-0--------
A|----------------------
E|---------------------- luego esto para conectar con el coro

CORO:
   G   D9        G           A
e|-8-8-8-7-8-8-7-----------/---------------------------
B|-8-8-8-8-8-8-8-7-8-8-7-8-/---------------------------
G|---------------7-7-7-7-7-/-6-7-6-7-6---6-7-6-7-6-----
D|-------------------------/-----------7-----------7---
A|-------------------------/---------------------------
E|-------------------------/--------------------------- x4

(esto ke viene ahora es lo ke hace malcolm)

   G   D9        G           A
e|-----0-0-0-0-0--------------------------------------
B|-3---3-3-3-3-3-3-3-3-3-3---2--2--2--2--2--2--2--2---
G|-0---2-2-2-2-2-0-0-0-0-0---2--2--2--2--2--2--2--2---
D|-0---0-0-0-0-0-0-0-0-0-0---2--2--2--2--2--2--2--2---
A|-x-------------x-x-x-x-x---0--0--0--0--0--0--0--0---
E|-3-------------3-3-3-3-3---------------------------- x4

e|---------
B|---------
G|-2-------
D|-2--2----
A|-0--2----
E|----0---- (Esto al final)

luego se repiten todas las tablaturas de vuelta excepto la intro y depues el solo:

E|--------7-7-7-7-----7---------7---|
B|--------7-7-7-7-------7-10----7---|
G|-------------------------9--------|
D|-9~~~~~---------------------------|
A|----------------------------------|
E|----------------------------------|

E|------------------------------|--------------------|
B|-7-----7-7---7-------7--------|----7-----7-7-7-----|
G|-7b----------7b--------7b-----|-9b---7b------------|
D|-------9-9-------9--------9---|----------9-9-9-----|
A|------------------------------|--------------------|
E|------------------------------|--------------------|

E|--------------------------------|-----------------------|
B|-/12-12-12---\------12~~~~10-12-|-12-10-10-10---7-------|
G|-/11-11-11---\--/13-------------|-11-11-11-11-9-7b------|
D|--------------------------------|------------------9----|
A|--------------------------------|-----------------------|
E|--------------------------------|-----------------------|

E|----------------------7-------|
B|------------------------------|
G|-7b----/9b11-9b11--------9~~~-|
D|----9-------------------------|
A|------------------------------|
E|------------------------------|

E|----------------------|--------------------7----------------|
B|-----12-12-10-12-12-\-|-----12\----12\-----7-10-7-----------|
G|-/13-11-11-11-11-11-\-|-/13-----/13----13---------9-7b------|
D|----------------------|--------------------------------9----|
A|----------------------|-------------------------------------|
E|----------------------|-------------------------------------|

E|-----------12-12-----------------------------|
B|-15b17~~~~-15-15-15--------------------------|
G|--------------------16-14----14-13----13---\-|
D|--------------------------14-------14--------|
A|---------------------------------------------|
E|---------------------------------------------|

E|-------------------------------------------|
B|/12-12-12-12-12-12-/15-15-15-15-15-15-15-/-|
G|/13-13-13-13-13-13-/14-14-14-14-14-14-14-/-|
D|-------------------------------------------|
A|-------------------------------------------|
E|-------------------------------------------|

luego pasa al coro y ese es todo el tema, por dudas mi mail Fabri_manya20@hotmail.com
Calificar esta versión:
Aviso: Este fichero es trabajo propio de su transcriptor y representa su interpretación personal de la canción. El material contenido en esta página es para exclusivo uso privado, por lo que se prohibe su reproducción o retransmisión, así como su uso para fines comerciales.