Bad Boy Boogie, Ac/dc (tablatura)

Autor: LorenACDC | 24670 visualizaciones

|--------------------|-----------------|
|--------------------|------3----------|   Se repite 4 veces
|----2--2--2--2------|---2--2--5--2----|
|----2--2--2--2------|---2--0--5--2----|
|----0--0--0--0------|---0---------0---|
|--------------------|-----------------|

|-----------------|
|------3----------|   
|---2--2--5--2----| Este riff se repite hasta que empiezan a
|---2--0--5--2----| cantar
|---0---------0---|
|-----------------|

Bueno solo he podido sacar hasta aqui, pero despues sigo con la cancion,
Calificar esta versión:
Aviso: Este fichero es trabajo propio de su transcriptor y representa su interpretación personal de la canción. El material contenido en esta página es para exclusivo uso privado, por lo que se prohibe su reproducción o retransmisión, así como su uso para fines comerciales.