Are You Ready (intro), Ac/dc (tablatura)

Autor: cezart | 32223 visualizaciones

bien aki sta el intro xD hahat WENO
chkenlo ez mi primera tablatura oh
ezthoy muy feliz haha bno 
nadamaz lez enzñare el intro
por ahora hahapor cierto
lez pondre a laz cuerda azi
1a 2a 3a cuerda por que no recuerdo
el nombre de laz cuerdaz ahora 
haha bno haber zi le entienden zi no
aki te mi correo 
living_the_rock@hotmail.com



ezta parte repitanla por 2
1a--------0-----------------------------------------------
2a----------3---------------------------------------------
3a-----2--------------------------------------------------
4a---0----------------------------------------------------
5a-------------------------------------------------------
6a-------------------------------------------------------

aki no cambia mucho y tambien repitanla por 2
1a--------0-------------------------------------------------
2a-----------3----------------------------------------------
3a------2---------------------------------------------------
4a---------------------------------------------------------
5a---3------------------------------------------------------
6a---------------------------------------------------------


y aki lo ultimo el tercer riff haha
1a--------0--------------------------------------------------
2a------------3---------------------------------------------
3a-----2---------------------------------------------------
4a---------------------------------------------------------
5a---2-------------------------------------------------------
6a----------------------------------------------------------
bien aki termina el intro ahora :S lo demaz
me da weba aprenderlo ezke no viene
muy bien y mejor lo zake al oido haha
ta wno ojala lez halla guzthado AC/DC!!!
mi metro www.metroflog.com/caps_95
ejelee xD adiooz
Calificar esta versión:
Aviso: Este fichero es trabajo propio de su transcriptor y representa su interpretación personal de la canción. El material contenido en esta página es para exclusivo uso privado, por lo que se prohibe su reproducción o retransmisión, así como su uso para fines comerciales.