Crying, Abba (tablatura)

Autor: xyriax | 35280 visualizaciones



Intro
1 -6---1-1---------5----2-3-4--0--------2----------
2 -------------9------------------0--0-------------
3 ---4---------------------------------------------
4 ---------7----------9----------------------------
5 -------------------------------------------------
6 -------------------------------------------------

1 -2-2-----2-2-----1-1-----------2-3-5------------
2 -----3-3-----3-3-------------------------------- 
3 ---------------------4-4--0-0-4-----------------
4 ------------------------------------------------
5 ------------------------------------------------
6 ------------------------------------------------





Calificar esta versión:
Aviso: Este fichero es trabajo propio de su transcriptor y representa su interpretación personal de la canción. El material contenido en esta página es para exclusivo uso privado, por lo que se prohibe su reproducción o retransmisión, así como su uso para fines comerciales.