I Cant Escape, A Vain Attempt (bajo)

Autor: beyondlee | 35960 visualizaciones

A vain attempt - I can?t escape
                             (Bass)

Intro:

----------|
----------|
----------|
--3~--5~--|

Continue intro:

--------------------------------------------------------|
--------------------------------------------------------|   x3
--------------------------------------------------------|
--77-7--77-7--77-7--77-7--33-3--33-3--55-5--55-5--------|


Verse 1:

-------------------------------------------------------|
-------------------------------------------------------|   x2
-------------------------------------------------------|
--777777777--777777777--333333333--555555555-----------|

Pre-coro:

------------------|
------------------|   x2
------------------|
--7~-7~-7/3~-5~--|

Coro:

--------------------------------------------------------------------------|
--------------------------------------------------------------------------|   x4
--------------------------------------------------------------------------|
--3333333333333333?5555555555555555?777777777777777777777777777710101010--|



(Drums + Scream)...



Verse 2:

-------------------------------------------------------|
-------------------------------------------------------|   x2
-------------------------------------------------------|
--777777777--777777777--333333333--555555555-----------|

Pre-coro:

------------------|
------------------|   x2
------------------|
--7~-7~-7~/3~-5~--|

Coro:

---------------------------------------------------------------------------|
---------------------------------------------------------------------------|   x4
---------------------------------------------------------------------------|
--3333333333333333?5555555555555555?7777777777777777777777777777710101010--|

Interlude:

-------------------------------------------------------|
-------------------------------------------------------|   x2
-------------------------------------------------------|
--777777777--777777777--333333333--555555555-----------|


Bridge:

-------------------------------------|
-------------------------------------|   
-------------------------------------|
--7-7-7-7-7-7-7-7?-3-3-3-3-?5-5-5-5--|

------------------------------------|
------------------------------------|   
------------------------------------|
--7-7-7-7-7-7-7-7?-3-3-3-3-?555-55--|


Coro:

--------------------------------------------------------------------------|
--------------------------------------------------------------------------|   x4
--------------------------------------------------------------------------|
--3333333333333333?5555555555555555?777777777777777777777777777710101010--|

Enning:

--------------|
--------------|   x2
--------------|
--3~--5~--7~--|

----------------------------------------|
----------------------------------------|   x2
----------------------------------------|
--33333333--55555555--7777777777777777--|


                             THE END!
                            ..........
Calificar esta versión:
Aviso: Este fichero es trabajo propio de su transcriptor y representa su interpretación personal de la canción. El material contenido en esta página es para exclusivo uso privado, por lo que se prohibe su reproducción o retransmisión, así como su uso para fines comerciales.