Judith, A Perfect Circle (tablatura)

Autor: Dave.ore | 25965 visualizaciones

INTRO:

    |--------------------------------------------| 
    |--------------------------------------------| 
    |-7h9-9-9---7-9/10/9-7/9---7h9-9-9--19-19/18-| 
    |-7h9-9-9---7-9/10/9-7/9---7h9-9-9-----------| 
    |-5h7-7-7---5-7/8 /7-5/7---5h7-7-7--17-17/16-| 
    |--------------------------------------------| x2 
este es el intro de Judith despues cuando empiesa a cantar.

    |-----------------------------------------------------| 
    |-----------------------------------------------------| 
    |-----------------------------------------------------| 
    |-12h14-14-14---12-14/15/14-12/14---12h14-14p12/5-5-5-| 
    |-----------------------------------------------------| 
    |-----------------------------------------------------| 

    |-------------| 
    |-------------| 
    |-------------| 
    |-------------| 
    |-5-5-5/2^~~~-| 
    |-------------| 

VERSO:

    |-----------------------------------------| 
    |-----------------------------------------| 
    |-----------------------------------------| 
    |-----------------------------------------| 
    |-0h2-2-2---0-2/3/2-0/2---0h2-2-2---5-5-5-| 
    |-0h2-2-2---0-2/3/2-0/2---0h2-2-2---5-5-5-| 

Coro

    |------------------------------------| 
    |------------------------------------| 
    |-15-15-15/14-14-14/9-9-9/10/9-------| 
    |--x--x--x--x--x--x-x-x-x-x--x-------| 
    |-13-13-13/12-12-12/7-7-7/8 /7-------| 
    |------------------------------------| 

 

    |-----17-------15--|-----17-------19-| 
    |-/17-----/15------|-/17-----/15-----| 
    |------------------|-----------------| 
    |------------------|-----------------| 
    |------------------|-----------------| 
    |------------------|-----------------| 

    |-----------------------| 
    |-----------------------| 
    |-16/18/14/13/14/9------| 
    |--x--x--x--x--x-x------| 
    |-14/16/12/11/12/7------| 
    |-----------------------| 



    |----------------------------| 
    |----15~----14~---9-9-9h10p9-| 
    |-15~----14~------9-9-9h10p9-| 
    |----------------------------| 
    |----------------------------| 
    |----------------------------| 

    |----------------------------------------------------| 
    |-15h17-17-17--15-17/22/15--15h17-17-17--17-17p15----| 
    |-------------------------------------------------16-| 
    |----------------------------------------------------| 
    |----------------------------------------------------| 
    |----------------------------------------------------| 


segundo verso

    |-22~-22~\21/22~-22-22-22-22/24----| 
    |-------------------------------22-| 
    |----------------------------------| 
    |----------------------------------| 
    |----------------------------------| 
    |----------------------------------| 

SOLO:
el solo y termina la cancion

    |-------------------------------------------------------------------| 
    |-/17-17-17\15-15-15/19~\17--17-17-17\15-15/19\15\12-12-12\10-10-10-| 
    |-------------------------------------------------------------------| 
    |-------------------------------------------------------------------| 
    |-------------------------------------------------------------------| 
    |-------------------------------------------------------------------| 

    |-------------------------------| 
    |-/17-17-17\15-15-15/19-19/24~~-| 
    |-------------------------------| 
    |-------------------------------| 
    |-------------------------------| 
    |-------------------------------|

Comentarios del colaborador: Espero y les salga porque a mi me sale a la perfeccion.

Calificar esta versión:
Aviso: Este fichero es trabajo propio de su transcriptor y representa su interpretación personal de la canción. El material contenido en esta página es para exclusivo uso privado, por lo que se prohibe su reproducción o retransmisión, así como su uso para fines comerciales.