Historia Imaginaria, 95 Octanos (tablatura)

Autor: Anónimo | 15535 visualizaciones

Esta cancion va para WabO ! LeO ! RicharD! LuisKarlOs! Oscar!!

tambien para la cachita .. BUSESSSSSSSSSSSS

! chvr brO's!

 chvr  con utd espero compartir secenario con ustds !!

 bueno aunke  le falta alguno arreglos !

 hay le vaa...




(Riff)
1|-----------------------------------------------
2|-----------------------------------------------
3|-------------------------------4-4-4-----------
4|---------5-5-5-5---5-5-5-5----5-5-5------------
5|-------7-7-7-7----6-6-6-6----3-3-3-------------
6|-----------------------------------------------
 SOL5                         RE                            DO
 Quisiera comenzar una nueva historia en la cual pueda en la cual
           DO
 pueda hacer algo mas ..
 (picking)
1|-----------------------------------------------
2|-----------------------------------------------
3|--------------------------------------5-3-2----
4|-----------3-2-3-3-5-3-2-/----3-2-3-3----------
5|-------3-3--------------/-3-3------------------
6|-----------------------------------------------

SOL5     RE           DO (PICKING)
miRando mi destino  mi tiempo

SOL                   RE                         DO
Solo quiero realizar grandes cancions que tngn lugar
SOL                   RE                         DO
en este lugar kisiera lograr solo un buen momento que lo haga real
SOL                   RE                         DO
Derrepene sea una lokura imaginar que sea real .. que sea real
SOL                   RE                         DO
no puede ser tan malo solo kiero demostrar k pueda ser meor kisas
                        DO
puda funcionar , solo ten paciencia todo es por ti
DO                RE                DO
Y pensar una nueva  historia y pensar  algo normal ...!!

(Riff)
1|-----------------------------------------------
2|-----------------------------------------------
3|-------------------------------4-4-4-----------
4|---------5-5-5-5---5-5-5-5----5-5-5------------
5|-------7-7-7-7----6-6-6-6----3-3-3-------------
6|-----------------------------------------------





ENEXEXO

enexexo_punk@hotmail.com!!

985263741!


Gracias  saludos a Zoniqqa [Megan]

 Tkm!!!
Calificar esta versión:
Aviso: Este fichero es trabajo propio de su transcriptor y representa su interpretación personal de la canción. El material contenido en esta página es para exclusivo uso privado, por lo que se prohibe su reproducción o retransmisión, así como su uso para fines comerciales.