Eres Todo Para Mi, 6 Voltios (tablatura)

Autor: punked | 37763 visualizaciones



Eres todo para mi-6 VOLTIOS

   G5   E5    C5    D5    B5    F#5   E5*
e|-X-| |-X-| |-X-| |-X-| |-X-| |-X-| |-X-|
B|-X-| |-X-| |-X-| |-X-| |-X-| |-X-| |-X-|
G|-X-| |-9-| |-5-| |-7-| |-4-| |-X-| |-X-|
D|-5-| |-9-| |-5-| |-7-| |-4-| |-4-| |-2-|
A|-5-| |-7-| |-3-| |-5-| |-2-| |-4-| |-2-|
E|-3-| |-X-| |-X-| |-X-| |-X-| |-2-| |-0-|

Intro:
e ---------------------
B ---------------------
G --------------55-44--   (x4)
D -5----555555--55-44-5
A -5----555555--33-22-5
E -3----333333--------3
       --P.M--

G5           E5          C5        D5
Todo se ha pasado rápidamente para mi
G5                    E5*          C5        D5
Si hablamos de sentimientos tengo fuego para ti
E5         C5            G5         D5
Todas esas noches en las que me sedujiste
E5             C5          G5             D5
Por todas esas veces esta vez que fuerte fue

B5   C5        G5 D5    B5        C5            G5          D5
Eres todo para mi,......cuando me miras, cuando te dejas tocar
B5        C5        G5    D5    B5        C5            G5          D5
Nunca terminare con esto wooho, todo vale nada,
      G5         D5              G5   
nada parece importar si tu estas
    
e ---------------------
B ---------------------
G --------------55-44--   (x2)
D -5----555555--55-44-5
A -5----555555--33-22-5
E -3----333333--------3

G5        E5            C5           D5
Y voy conociendo poco a poco todo tu cuerpo
G5             E5*              C5           D5
La mayoría del tiempo quiero estar dentro de ti.
E5          C5            G5      D5
Si me lo permites me quedare esta noche,
E5         C5          G5         D5
iré muy despacio y después no parare.

B5   C5        G5 D5    B5        C5            G5          D5
Eres todo para mi,......cuando me miras, cuando te dejas tocar.
B5        C5        G5    D5    B5        C5       
Nunca terminare con esto wooho, todo vale nada,
      G5         D5       
nada parece importar si tu estas
 
E5        C5   G5           F#5
 Seré solo tuyo si me pides que me quede a dormir,
E5  C5 G5           F#5
 serás mía si me dejas llegar profundo otra vez,
E5  C5      G5        D5    E5     C5          G5       D5
 y fue eres todo para mi, y fue el resto, eres todo para mi

e -------------------------------------------|
B ---------12-------12-12-13-12-10---8-10-12-|
G -9--9-12-----9-12--------------------------|  (X2)
D -------------------------------------------|
A -------------------------------------------|
E -------------------------------------------|

e---------------------------------------------------------------
B-12-12-15-13-12---13-13-15-12---8-8-12-10-8---10-8-8-10-8-8-10-
G---------------------------------------------------------------
D---------------------------------------------------------------
A---------------------------------------------------------------
E---------------------------------------------------------------

e ------------------------------|
B -12 (x10)--13 (x10)--15 (x10)-|
G ------------------------------|
D ------------------------------|
A ------------------------------|
E ------------------------------|

B5   C5        G5 D5    B5        C5            G5          D5
Eres todo para mi,......cuando me miras, cuando te dejas tocar.
B5        C5        G5    D5    B5        C5       
Nunca terminare con esto wooho, todo vale nada,
      G5         D5              G5   
nada parece importar si tu estas





Calificar esta versión:
Aviso: Este fichero es trabajo propio de su transcriptor y representa su interpretación personal de la canción. El material contenido en esta página es para exclusivo uso privado, por lo que se prohibe su reproducción o retransmisión, así como su uso para fines comerciales.