Dando Vueltas, 6 Voltios (tablatura)

Autor: Anónimo | 45408 visualizaciones

DANDO VUELTAS
esta es una kancion rekontra paja, fue bravo sakarla, pero cuando 
la eskuchas y eskuchas sabes ke algo de esta kancion es komo tu, 
y a la mierda, la sakas komo sea y asi sake esta huevada, 
nuevamente para mi princesa MARLYN ....

INTRO x3

   C5           A5           F5     G5
|------------------------------------------------|
|------------------------------------------------|
|------------------------------------------------|
|-------5-5-3-2---5-5-3-2-3--3-3-2-5-5--5-3-2----|
|--3--3---------0-----------------------------5--|
|------------------------------------------------|

C5       A5          F5     G5
esta es mi vida y la voy a vivir

C5      A5       F5        G5
y nadie mas me dira ke hacer

C5        A5         F5          G5
estoy kansado de escuchar tu opinion

C5      A5      F5     G5
no me interesa, kamino solo

F5            G5    F5-G5
no hay ningun valor


C5
estoy tratando de ser el idiota

A5                                           G5
el chiko korrecto ke kieren que sea y no puedo

F5
dando vueltas siempre el peor

|---------------------------|
|---------------------------|
|--10-9----7--10-9----7-----|
|-------10---------10---10--|Solo 1° guitarra, la 2° hace F5
|---------------------------|
|---------------------------|

C5
y si es ke ahora algo esta kambiando 

A5                                         G5
el paso del tiempo me kiere llevar a tu lado

F5
soy diferente pero se ke algo esta mal

|--------------------------------|
|--------------------------------|
|--10-9-7--------10-9-10-9-7-----|
|---------10-----------------10--|Solo 1° guitarra, la 2° hace F5
|------------10------------------|
|--------------------------------|

C5 D5
(Solo la 1° guitarra hace D5, la 2° se mantiene en C5) 

   C5 C5 C5 C5 C5 C5 E#5 E5 D5 C5
|----------------------------------|
|----------------------------------|
|--10-9--------10-9--10--9--7------|
|-------10---------------------10--|
|----------10----------------------|
|----------------------------------|

C5       A5          F5     G5         
esta es mi vida y la voy a vivir

C5         A5        F5      G5
el mundo afuera me esta esperando

C5         A5     F5        G5
no creo en nadie solo creo en mi

C5         A5        F5     G5
se paso el tiempo y camino solo

F5            G5    F5-G5
no hay ningun valor


C5
estoy tratando de ser el idiota

A5                                           G5
el chiko korrecto ke kieren que sea y no puedo

F5
dando vueltas siempre el peor

|---------------------------|
|---------------------------|
|--10-9----7--10-9----7-----|
|-------10---------10---10--|Solo 1° guitarra, la 2° hace F5
|---------------------------|
|---------------------------|

C5
y si es ke ahora algo esta kambiando 

A5                                         G5
el paso del tiempo me kiere llevar a tu lado

F5
soy diferente pero se ke algo esta mal

|--------------------------------|
|--------------------------------|
|--10-9-7--------10-9-10-9-7-----|
|---------10-----------------10--|Solo 1° guitarra, la 2° hace F5
|------------10------------------|
|--------------------------------|


  C5 A5 G5 F5     C5 A5 G5 F5       C5 A5 F5 G5
|------------------------------------------------|
|------------------------------------------------|
|--9-10-12-10-9----9-10-12-9-10-9----9-10-12-10--|
|---------------12----------------12-------------|
|------------------------------------------------|
|------------------------------------------------|

C5                                         A5               G5 
kiero ke entiendas ke solo soy un chiko y ke busko diversion
(1° guitarra G5, y la segunda F5)


C5          C5           A5                G5      
no kiero replikar mama de nuevo kon tu sermon

   C5           A5           F5     G5
|------------------------------------------------|
|------------------------------------------------|
|------------------------------------------------| x2
|-------5-5-3-2---5-5-3-2-3--3-3-2-5-5--5-3-2----|
|--3--3---------0-----------------------------5--|
|------------------------------------------------|

C5
estoy tratando de ser el idiota

A5                                          G5
el chiko korrecto ke kieren ke sea y no puedo

F5                                     C5
soy diferente pero se ke algo esta mal

|--------------------------------|
|--------------------------------|
|--10-9-7--------10-9-10-9-7-----|
|---------10-----------------10--|Solo 1° guitarra, la 2° hace F5
|------------10------------------|
|--------------------------------|

NOTA: 

Despues del 1° coro solo la 1° guitarra hace D5 y la 2° se mantiene 
en C5 El ultino coro va akompañado kon lo mismo pero solo la 1° guitarra 
la 2° hace el akompañamiento normal del coro (cuando dice soy diferente 
pero se ke algo esta mal la 2° hace F5 y la 1° el punteo)
hay partes ke son pendejas al momento de sakarla, despues ke dice  
y ke busko diversion se kruzan dos akordes: 1° guitarra G5 y 
2° guitarra F5 (si kieren tocarla igual)

*A TODOS LOS KE REALMENTE LES GUSTE 6 VOLTIOS 
DISCULPEN LA KAGADA DE LETRA KE HE PUESTO
LO KE PASA ES KE MI DISKO NO ES FIRME Y ESKRIBO LO KE MIERDA ESKUCHO
POR ESO A LOS KE SI TIENEN EL FIRME, USEN YA SABEN KOMO ES LA LETRA
Y A LO HUEVONES KE SE BAJAN ESTA TABLATURA SOLO POR BALAR, VAYANSE A LA MIERDA...

Y NOS VEMOS EL 7 DE DICIEMBRE EL LA DESPEDIDA DE AÑO CON DALEVUELTA, INYECTORES, 
6 VOLTIOS Y UN CULO MAS DE GRUPOS
Una ultima kosa, a los DaleVuelteros, ke se juegen la kancion masacre o frustracion.

Fuente original: LaCuerda
Colaborador original: Carlos [necrodead6@hotmail.com]
Calificar esta versión:
Aviso: Este fichero es trabajo propio de su transcriptor y representa su interpretación personal de la canción. El material contenido en esta página es para exclusivo uso privado, por lo que se prohibe su reproducción o retransmisión, así como su uso para fines comerciales.