Mi Principio Y Mi Final, 4 Y Medio (tablatura)

Autor: david_pxndx | 42452 visualizaciones

intro
e|---------------------------------------------|
B|---------------------------------------------|
G|-------3-----3-------------------------------|
D|-------------------6-----6------2----2-------|
A|--2-2-----22---------------------------------|
E|---------------4-4----44----0-0---00----2----|

luego esto:
e|------------------------------|
B|------------------------------|
G|--44444-----------------------|
D|--44444--66666--22222--44444--|x2
A|--22222--66666--22222--44444--|
E|---------44444--00000--22222--|

luego para terminar va esto:
e|--------------------------------------------|
B|--------------------------------------------|
G|--44444-------------------------------------|
D|--44444--66666—-11-11-11-11-11--1414141414--|
A|--22222--66666—-11-11-11-11-11--1414141414--|
E|---------44444—-9--9--9--9--9---1212121212--|


verso
se me olvido otra vez, kmo valert.........
e|--------------------------------------------|
B|--------------------------------------------|
G|--44444-------------------------------------|
D|--44444--66666—-11-11-11-11-11--1414141414--|x2
A|--22222--66666—-11-11-11-11-11--1414141414--|
E|---------44444—-9--9--9--9--9---1212121212--|


luego esto:
e|------------------------------|
B|------------------------------|
G|--44444-----------------------|
D|--44444--66666--22222--44444--|x2
A|--22222--66666--22222--44444--|
E|---------44444--00000--22222--|

me hace falta tu sonrisa.....
e|--------------------------------------------|
B|--------------------------------------------|
G|--44444-------------------------------------|
D|--44444--66666—-11-11-11-11-11--1414141414--|x2
A|--22222--66666—-11-11-11-11-11--1414141414--|
E|---------44444—-9--9--9--9--9---1212121212--|

luego va el bajo i después entra la guitarra haciendo eso
e|-------------------|  |-------|
B|-------------------|  |-------|
G|-------------------|  |-------|esto lo tocan varias veces
D|-------------------|x3|-------|ojala me entiendan!!
A|--777-6-7--9—99999-|  |-9-77--|
E|-------------------|  |-------| 
no estoi mui seguro de esto! pero almenoz kn lo q les puc talvez agarren una idea i lo sacan ustedes!



luego va así:
e|------------------------------|  |-----------------------------------|
B|------------------------------|  |-----------------------------------|
G|------------------------------|  |-----------------------------------|
D|--6666--4444--9999--14141414--|x2|--6666--4444--11-11-11-11--141414--|
A|--6666--4444--9999--14141414--|  |--6666--4444--11-11-11-11--141414--|
E|--4444--2222--7777--12121212--|  |--4444--2222--9--9--9--9---121212--|

tu mi principio, tu mi final......
e|------------------------------|
B|------------------------------|
G|--44444-----------------------|
D|--44444--66666--22222--44444--|x4
A|--22222--66666--22222--44444--|
E|---------44444--00000--22222--|

Silencio
-----------------------------------------

sigo intentando, pero no puedo...........
e|--------------------------------------------|
B|--------------------------------------------|
G|--44444-------------------------------------|
D|--44444--66666—-11-11-11-11-11--1414141414--|x2
A|--22222--66666—-11-11-11-11-11--1414141414--|
E|---------44444—-9--9--9--9--9---1212121212--|

e|------------------------------|
B|------------------------------|
G|--44444-----------------------|
D|--44444--66666--22222--44444--|
A|--22222--66666--22222--44444--|
E|---------44444--00000--22222--|


tu mi principio, tu mi final......
e|------------------------------|
B|------------------------------|
G|--44444-----------------------|
D|--44444--66666--22222--44444--|x6
A|--22222--66666--22222--44444--|
E|---------44444--00000--22222--|

i dejan sonra en
e|-----|
B|-----|
G|--4--|
D|--4--|
A|--2--|
E|-----|


luego va otro pedazo d guitarra pero no lo pude sacar!! pero si alguien lo saca ps les agradeceria si me lo envian!

i luego para terminar sohloh hacen este circulo una vez!
e|------------------------------|
B|------------------------------|
G|--44444-----------------------|
D|--44444--66666--22222--44444--|
A|--22222--66666--22222--44444--|
E|---------44444--00000--22222--|

bueno ojala les aiude d algo mi tab! si tienen dudas, sugerencias felicitaciones, reclamos, scribanme a tankian_28@hotmail.com   
Calificar esta versión:
Aviso: Este fichero es trabajo propio de su transcriptor y representa su interpretación personal de la canción. El material contenido en esta página es para exclusivo uso privado, por lo que se prohibe su reproducción o retransmisión, así como su uso para fines comerciales.