Eres Tu, 4 Y Medio (tablatura)

Autor: david_pxndx | 36620 visualizaciones

Ola mueno antez d empezar mi lira la tenwo afinada en bemol 
Azi q x zi no lez zuena la tab zolo bajenle o zubanle un trazte
Depende d la afinazion q tenwan x ejemplo zi io puze trazte 4 i a 
Uztedez no lez pareze tonz toqen terzer trazte en vez d quarto trazte
i zi tampoqo lez zuena pz toqen en vez d quarto trazte qinto
trazte todo depende d la afinazion q tenwan lez dejo mi msn i ahi
ze loz expliqo mejor xD tankian_28@hotmail.com
bai 

Intro
Primera guitarra
e|------------------------------|
B|-6--4-3-4--6-4-3-4--8-8-6-4-3-|
G|------------------------------|
D|------------------------------|x2
A|------------------------------|
E|------------------------------|

Segunda guitarra
Intro
e|-----------------------------------------------|
B|-----------------------------------------------|
G|-----------------------------------------------|
D|-88888888--------------------------------------|x2
A|-66666666-1010101010101010--66666666--88888888-|
E|----------8-8-8-8-8-8-8-8---44444444--66666666-|

Verso (laz doz witarraz)
Ia no ze q azer kn ezte sentimiento q no puedo......
e|-----------------------------------------------|
B|-----------------------------------------------|
G|-----------------------------------------------|
D|-88888888--------------------------------------|x4
A|-66666666-1010101010101010--66666666--88888888-|
E|----------8-8-8-8-8-8-8-8---44444444--66666666-|

I no podre awuantar otro dia maz zi no ztaz junto a mi......
e|-------------------------------------|
B|-------------------------------------|
G|-------------------------------------|
D|-------------------88888888----------|x2
A|-55555555-66666666-66666666-88888888-|
E|-33333333-44444444----------66666666-|


(nota: ezto va kn alwo d palm mute zquxenla xD)
e|---------------------------------------------|
B|---------------------------------------------|
G|---------------------------------------------|
D|---------------------------------------------|x2
A|-55555555-66666666-88888888-1010101010101010-|
E|-33333333-44444444-66666666-8-8-8-8-8-8-8-8--|

I antes dl ziwiente verzo toqan esto
A|-8-6-5-6-|

Ia t dije todo lo q ziento x ti i tu tmbn x mi.....
e|-----------------------------------------------|
B|-----------------------------------------------|
G|-----------------------------------------------|
D|-88888888--------------------------------------|x2
A|-66666666-1010101010101010--66666666--88888888-|
E|----------8-8-8-8-8-8-8-8---44444444--66666666-|

I no podre awuantar otro dia maz zi no ztaz junto a mi......
e|-------------------------------------|
B|-------------------------------------|
G|-------------------------------------|
D|-------------------88888888----------|x4
A|-55555555-66666666-66666666-88888888-|
E|-33333333-44444444----------66666666-|


Zohloh 
^: Razweo azia arriba
/////:Dezliz
Primera guitarra
e|---------6-4-3-4------------------6-4-3-4-6/////11------13-11-|
B|-6-4-3-4---------4------4-6-^6-^4------------------9-11-------|
G|--------------------4-6---------------------------------------|
D|--------------------------------------------------------------|
A|--------------------------------------------------------------|
E|--------------------------------------------------------------|

Segunda guitarra
e|-----------------------------------------------|
B|-----------------------------------------------|
G|-----------------------------------------------|
D|-88888888--------------------------------------|x2
A|-66666666-1010101010101010--66666666--88888888-|
E|----------8-8-8-8-8-8-8-8---44444444--66666666-|

Coro
Erez tu qien me aze zonreir erez tu qien me aze mui feliz......
e|-----------------------------------------------|
B|-----------------------------------------------|
G|-----------------------------------------------|
D|-88888888--------------------------------------|x2
A|-66666666-1010101010101010--66666666--88888888-|
E|----------8-8-8-8-8-8-8-8---44444444--66666666-|
Calificar esta versión:
Aviso: Este fichero es trabajo propio de su transcriptor y representa su interpretación personal de la canción. El material contenido en esta página es para exclusivo uso privado, por lo que se prohibe su reproducción o retransmisión, así como su uso para fines comerciales.