Lolo - Lala, 31 Minutos (tablatura)

Autor: Anónimo | 27262 visualizaciones

Aqui esta la guitarra que va detrás del teclado, esta de
remolinche!!! disfrutenla

No estoy 100% seguro si estos son los acordes correctos
pero suena igual

           [[[[[TOCAS ESTO UNA VEZ Y LUEGO TODO DE NUEVO]]]]]


                                 ((despues de la segunda vez))LA        LA
e|--------------------------------------------------------------------------|
B|--------------------------------------------------------------------------|
G|------------14-14-14-14-14-14-X-------------------------------------------|
D|---777777-X-14-14-14-14-14-14-X-14-14-14-14-14-14-X--13--12-12-12-12-12-12|
A|---777777-X-12-12-12-12-12-12-X-14-14-14-14-14-14-X--13--12-12-12-12-12-12|
E|---555555-X---------------------12-12-12-12-12-12-X--11--10-10-10-10-10-10|

                                                                                X3
                                                               LA       LA               
e|--------------------------------------------------------------------------|
B|--------------------------------------------------------------------------|
G|------------14-14-14-14-14-14-X-16-16-16-16-16-16-X--14-------------------|
D|---777777-X-14-14-14-14-14-14-X-16-16-16-16-16-16-X--14--16-16-16-16-16-16|
A|---777777-X-12-12-12-12-12-12-X-14-14-14-14-14-14-X--12--16-16-16-16-16-16|
E|---555555-X----------------------------------------------14-14-14-14-14-14|

                                 LA           LA
e|----------------------------------------------|
B|----------------------------------------------|
G|---16-16-16-16-16-16--14--16-16-16-16-16-16-16|
D|---16-16-16-16-16-16--14--16-16-16-16-16-16-16|
A|---14-14-14-14-14-14--12--14-14-14-14-14-14-14|
E|----------------------------------------------|
                                 LA           LA
e|----------------------------------------------|
B|----------------------------------------------|
G|---14-14-14-14-14-14--12--14-14-14-14-14-14-14|
D|---14-14-14-14-14-14--12--14-14-14-14-14-14-14|
A|---12-12-12-12-12-12--10--12-12-12-12-12-12-12|
E|----------------------------------------------|
                                 LA          LA
e|------------------------------------------|
B|------------------------------------------|
G|----------------12------------12----------|
D|---14-14-14-14--12--14-12-14--12--14-13-12|
A|---14-14-14-14--10--14-12-14--10--14-13-12|
E|---12-12-12-12------12-10-12------12-11-10|

Esto hago con mi ocio en el verano...AiOs pronto le traeré más

Este pequeño esfuerzo va dedicado a una amiga muy especial...SImOnE.
Calificar esta versión:
Aviso: Este fichero es trabajo propio de su transcriptor y representa su interpretación personal de la canción. El material contenido en esta página es para exclusivo uso privado, por lo que se prohibe su reproducción o retransmisión, así como su uso para fines comerciales.