El Dinosaurio Anacleto, 31 Minutos (tablatura)

Autor: guitarCHI | 38137 visualizaciones

Esta es mi primera canción que subo ojala que sirva y este bien, si hay errores me avisan Saludos!! :D


Riff 1
-----------------------------------------------------
---3-----3------3-----3------3-----3------3-----3----
------0-----0------0-----0------0-----0------0-----0-
-----------------------------------------------------
----------------3------------2------------0----------
---3-------------------------------------------------

Riff 2
---3-----3------3-----3------3-----3------3-----3----
------3-----3------3-----3------3-----3------3-----3-
-----------------------------------------------------
-----------------------------------------------------
----------------3------------2------------0----------
---3-------------------------------------------------

Riff 1

Soy un dinosaurio y me llamo Anacleto
por cosas del destino no morí en la glaciación
mis amigos se extinguieron me dejaron sólo
y tuve que resignarme a esta situación

Riff 2

me aburría mucho por que no tenía parientes
nadie conocido con quien salir a jugar
tuve que inventarme amigos para entretenerme
sentarme frente a un espejo para conversar

pero una mañana decidí cambiar mi suerte
y mandé un proyecto para la televisión
se trataba de un programa para la familia
con cantantes y concursos, mucha diversión

el gerente del canal me llamó a su oficina
le encantó el programa y me dijohagámoslo 
firmamos contrato y después de un par de meses
yo me convertí en figura de televisión


Re             Do
conocí a las estrellas
          SOL 
de las portadas, u-hu-hu
Re             Do
sumergido en la fama
          SOL 
y en el placer, u-hu-hu
Re             Do
me compré autos caros
          SOL 
una casa en la playa
                   Do
pero no fui feliz
                   Do
pero no fui feliz...

no fui feliz


Riff 1 

todavía extrañaba a mis amigos dinosaurios
y a los cavernícolas que nos querían cazar
por eso un buen dia me vine a vivir al campo
a cambiar la fama por amigos de verdad...
Calificar esta versión:
Aviso: Este fichero es trabajo propio de su transcriptor y representa su interpretación personal de la canción. El material contenido en esta página es para exclusivo uso privado, por lo que se prohibe su reproducción o retransmisión, así como su uso para fines comerciales.