14 Botellas, 2 Minutos (tablatura)

Autor: joaquin antonio | 31758 visualizaciones



INTRO:
e|---------------------|
B|---------------------|
G|---------------------|
D|-7-7-7-7-7-7-7-7-7---| Varias veces
A|-5-5-5-5-5-5-5-5-5---|
E|---------------------|

RIFF 1:
e|-------------------------------------------------------------|
B|-------------------------------------------------------------|
G|-------------------------------------------------------------|
D|-7-7-6-6-4-4-----------------------------------6/7-7-7-7-7---|
A|-5-5-4-4-2-2-5-5-5/7-7-7-7-7---5-5-4-4-5-5-7-7-4/5-5-5-5-5---|
E|-------------3-3-3/5-5-5-5-5---3-3-2-2-3-3-5-5---------------|


e|-------------------------------------------------------------|
B|-------------------------------------------------------------|
G|-------------------------------------------------------------|
D|-7-7-6-6-4-4-----------------------------------7-------------|
A|-5-5-4-4-2-2-5-5-5/7-7-7-7-7---5-5-4-4-5-5-7-7-5-------------|
E|-------------3-3-3/5-5-5-5-5---3-3-2-2-3-3-5-5---------------|



RIFF 1:
e|-------------------------------------------------------------|
B|-------------------------------------------------------------|
G|-------------------------------------------------------------|
D|-7-7-6-6-4-4-----------------------------------6/7-7-7-7-7---|
A|-5-5-4-4-2-2-5-5-5/7-7-7-7-7---5-5-4-4-5-5-7-7-4/5-5-5-5-5---|
E|-------------3-3-3/5-5-5-5-5---3-3-2-2-3-3-5-5---------------|


e|-------------------------------------------------------------|
B|-------------------------------------------------------------|
G|-------------------------------------------------------------|
D|-7-7-6-6-4-4-----------------------------------7-------------|
A|-5-5-4-4-2-2-5-5-5/7-7-7-7-7---5-5-4-4-5-5-7-7-5-------------|
E|-------------3-3-3/5-5-5-5-5---3-3-2-2-3-3-5-5---------------|



RIFF 2:
e|-------------------------------------------------------------|
B|-------------------------------------------------------------|
G|-7-7-7-7-7-7-------------------------------------------------|
D|-5-5-5-5-5-5-7-7-7-7-7-7-------------7-7-7-7-7-7-------------|
A|-------------5-5-5-5-5-5-7-7-7-7-7-7-5-5-5-5-5-5-------------|
E|-------------------------5-5-5-5-5-5-------------------------|


e|-------------------------------------------------------------|
B|-------------------------------------------------------------|
G|-------------------------------------7-----------------------|
D|-------------7-7-7-7-7-7-------------5-----------------------|
A|-5-5-5-5-5-5-5-5-5-5-5-5-7-7-7-7-7-7-------------------------|
E|-3-3-3-3-3-3-------------5-5-5-5-5-5-------------------------|



RIFF 1:
e|-------------------------------------------------------------|
B|-------------------------------------------------------------|
G|-------------------------------------------------------------|
D|-7-7-6-6-4-4-----------------------------------6/7-7-7-7-7---|
A|-5-5-4-4-2-2-5-5-5/7-7-7-7-7---5-5-4-4-5-5-7-7-4/5-5-5-5-5---|
E|-------------3-3-3/5-5-5-5-5---3-3-2-2-3-3-5-5---------------|


e|-------------------------------------------------------------|
B|-------------------------------------------------------------|
G|-------------------------------------------------------------|
D|-7-7-6-6-4-4-----------------------------------7-------------|
A|-5-5-4-4-2-2-5-5-5/7-7-7-7-7---5-5-4-4-5-5-7-7-5-------------|
E|-------------3-3-3/5-5-5-5-5---3-3-2-2-3-3-5-5---------------|





Comentarios del colaborador: espero que les guste este es mi segunda cancion si tienen duda mandeme sus mensajes a mi correo colorado.ikki-jodete@hotmail.com que viva 2 minutos

Calificar esta versión:
Aviso: Este fichero es trabajo propio de su transcriptor y representa su interpretación personal de la canción. El material contenido en esta página es para exclusivo uso privado, por lo que se prohibe su reproducción o retransmisión, así como su uso para fines comerciales.