Tu Sonrisa, 1280 Almas (tablatura)

Autor: Anónimo | 44070 visualizaciones



Una excelente canción, de una banda realmente épica, orgullo
para nuestra música. Por favor cualquier sugerencia, corrección o
madrazo, contacten a dbarbosagomez@gmail.com, igual es mi primera tab.
Que viva el Rock colombiano, carajo!

Intro: Dm - Am

Gtr. I (Acústica)

  (Dm)                          (Am)
e---1---1----1------1----1---1-------------------
B-----3--------3-----------3------1---1----1---1-
G---------------(2)-----------------2--------2---
D-0--------0-----------0-------------------------
A-------------------------------0--------0-------
E------------------------------------------------

Gtr. II (Eléctrica)

(Dm)--------------------------+ (Am)--------------------+

e-------------------------5------------------------------
B-----6-/10-9-8-6~~-----6--------------------------------
G--/7----------------/7-----7-5-----5-7-5----------------
D---------------------------------7-------7-5-7-5-3-2----
A--------------------------------------------------------
E--------------------------------------------------------

(Dm)--------------------------+ (Am)--------------------+

e-------------------------5-10-8-7-5-3-5-3-1-------------
B-----6-/10-9-8-6~~-----6--------------------3-1---------
G--/7-----------------7--------------------------2-0-----
D----------------------------------------------------3-0-
A--------------------------------------------------------
E--------------------------------------------------------

Riff 1(transcrip.del bajo)/  (Dsus4)        (Am7)

e--5--------               e--3------     e---3-----
B--5--------               B--3------     B---1-----
G--5--------               G--2------     G---2-----
D--7-5h7-5--               D--0------     D---2-----
A--7-------7               A---------     A---------
E--5--------               E---------     E---------

Em* -> Em con cejilla (en el 7mo. traste)
Am* -> Am con cejilla tocado solo una vez, hacia abajo(5to. traste)



 Dm                                      Am
En este mundo se vive con dolor y con tristeza
 Dm                                         Am
por eso es que tu sonrisa llevo siempre en la cabeza
 Dm                                         Am
no quiero verte llorando aunque no sea inevitable
 Dm                                       Am
yo vivo de tu sonrisa como del agua y del aire
   Em         G     Am
Yo vivo de tu sonrisa...

Am*  Am*  Am* (riff 1) Em* x 2

 Dm                                      Am
En este mundo se vive con el muerto por delante
 Dm                                         Am
por eso es que tu sonrisa es un tesoro tan grande
 Dm                                           Am
si los buenos van muriendo antes de lo que les toca
 Dm                                          Am
que importa si yo me muero viendo sonreir tu boca
  Em         G     Am
Que importa si yo me muero...

 Am* (riff 1)      Am*   (riff 1) Am*
Hay que humanidad, hay que humanidad
  Em*
que me esta doliendo
 Am* (riff 1)      Am*   (riff 1) Am*
hay que humanidad, hay que humanidad
  Em*
la que llevo adentro

(mismas notas, pero con el arpegio de la intro)

 Dm
Y que me esta doliendo...

En este mundo se vive, como esclavo del dinero
por eso esque tu sonrisa, me hace ver lo verdadero.
Poco le queda a los hombres cercano a la libertad,
yo cuento con tu sonrisa, que es sincera de verdad.

Yo cuento Con tu sonrisa!!

Hay que humanidad, hay que humanidad
que me esta doliendo
Hay que humanidad, hay que humanidad
la que llevo adentro...y que me esta doliendo.

En este mundo se vive y se muere en un segundo
por eso es que tu sonrisa, es mi amuleto en el mundo
porque ya no creo en la virgen, ni en el buda ni en jesus
solo creo en tu sonrisa, que me aliviana la cruz!

Solo creo en tu sonrisa!!

Hay que humanidad, hay que humanidad
que me esta doliendo
Hay que humanidad, hay que humanidad
la que llevo adentro...y que me esta doliendo.
 Dm       Dsus4         Dm  Am        Am7      Am
Hay no me des por vencido, si me he quedao' tendio'
 Dm       Dsus4         Dm  Am        Am7      Am
y aunque este desfallecido, pues si tu vienes conmigo
 Dm       Dsus4         Dm  Am        Am7      Am
Hay no me des por sentao', que yo me muero parao'
 Dm       Dsus4         Dm  Am        Am7      Am
dejame ver tu sonrisa y no me doy por ganao'
 Dm       Dsus4         Dm  Am        Am7      Am
Hay no me dejes colgao' si te vas a ver conmigo
 Dm       Dsus4         Dm  Am        Am7      Am
que cada segundo cuenta, en este salto al vacío.
 Em         G       Am
Que cada segundo cuenta!

Final:

Am*  Am*  Am* (riff 1)    Em*





Calificar esta versión:
Aviso: Este fichero es trabajo propio de su transcriptor y representa su interpretación personal de la canción. El material contenido en esta página es para exclusivo uso privado, por lo que se prohibe su reproducción o retransmisión, así como su uso para fines comerciales.