Venezuela, 0 Km (tablatura)

Autor: la que mas sabe | 28188 visualizaciones



e--------0---0-2-0-----------------3-2---2-2-2-3-2-0-0-------|
B----3-3---3-------3-------3---0-3---------------------3-2-3-|
G--2-----------------2---2---2-------------------------------|
D------------------------------------------------------------|
A------------------------------------------------------------|
E------------------------------------------------------------|

e--0-0-0-2-0-----------------0---0-2-0-----------------3-2---|
B-------------3-3--2-----3-3---3-------3-------3---0-3-------|
G----------------------2-----------------2---2---2-----------|
D------------------------------------------------------------|
A------------------------------------------------------------|
E------------------------------------------------------------|

e--2-2-0-0---3-5-5-3-2----0-2--0---------3-3-5-3-5-3-7-5-3-2-|
B----------3------------3--------3-2-3-----------------------|
G------------------------------------------------------------|
D------------------------------------------------------------|
A------------------------------------------------------------|
E------------------------------------------------------------|

e---0-2--7-5-3-2---3-2-0------0----0----2-3-5-0----0-3-2-0---|
B-3-----------------------2-3----2----2----------0---------3-|
G------------------------------------------------------------|
D------------------------------------------------------------|
A------------------------------------------------------------|
E------------------------------------------------------------|

(todo se repite)





Calificar esta versión:
Aviso: Este fichero es trabajo propio de su transcriptor y representa su interpretación personal de la canción. El material contenido en esta página es para exclusivo uso privado, por lo que se prohibe su reproducción o retransmisión, así como su uso para fines comerciales.