Enviado por:
andreiitap SC

Canciones Populares, Noche De Paz

Imprimir
Noche De Paz

e-|----------|-------------|-----------------|
B-|----------|-------------|-3-3-0-0-1-1-----|
G-|--0-2-0---|--0-2-0------|-------------0---|
D-|--------2-|--------2----|-----------------|
A-|----------|-------------|-----------------|
E-|----------|-------------|-----------------|

e-|---------------------|----------------------|
B-|------1-0------------|-------1-0------------|
G-|--2-2-----2-0-2-0----|---2-2-----2-0-2-0----|
D-|------------------2--|-------------------2--|
A-|---------------------|----------------------|
E-|---------------------|----------------------|

e-|-------1-------0---|---|------|--------|
B-|---3-3---3-0-1-----|-1-|------|--------|
G-|-------------------|---|-0---0|--------|
D-|-------------------|---|---2--|-3-0----|
A-|-------------------|---|------|------3-|
E-|-------------------|---|------|--------|


Me demoree!! xD bueno aii sta bn xD kreo--- opiinen!!! xD 

speroo ke les salga poez =)
Aviso: Este fichero es trabajo propio de su transcriptor y representa su interpretación personal de la canción. El material contenido en esta página es para exclusivo uso privado, por lo que se prohibe su reproducción o retransmisión, así como su uso para fines comerciales.

Califica esta canción


Comentarios en Facebook