Enviado por: Anonimo
Agrandar Letra
Reducir Letra
Imprimir

Acordes:
½ tono
| +0 |
½ tono
||
Volver


Attaque 77, No me arrepiento de este amor

 esta es una correccion al intro de esta rola ahora solo denle los tiempos y desfrutenla.
le quiero dedicar esta rola a olivia


No me arrepiento de este amor

   G5  Bb5  F5 Eb5
E|-----------------|
B|-----------------|
G|------3----------|
D|--5---3---3---6--|
A|--5---1---3---6--|
e|--3-------1---4--|

 INTRO
E----------------------------------------------------------------------------------------------------
B----------------------------------------------------------------------------------------------------
G-0-2-3-3-3-2-3-2-0-0-0---2-2-3-7-7-7-5-5-5-7-7-7---7-7-8-5-5-5-3-3-3-2-2-2—--5-5-7-3-3-3-2-2-2-0-0-0
D----------------------------------------------------------------------------------------------------   x 2
A----------------------------------------------------------------------------------------------------
e----------------------------------------------------------------------------------------------------


VERSO1:
G5                                       Bb5
No me arrepiento de este amor, aunque me cueste el corazón;
           F5                              G5
amar es un milagro y yo te amé, como nunca jamás lo imaginé.
                                Bb5
Quiero arrancarme de tu piel, de   tu mirada de tu ser,
                 F5                             G5
yo siento que la vida se nos va y que el día de hoy no vuelve mas.

VERSO2:
      Bb5                            F5
Después de cerrar la puerta, nuestra cama espera abierta,
    Eb5                    Bb5  F5
la locura apasionada del amoooo-oooor.
           Bb5                          F5
Y entre un te quiero y te quiero, vamos remontando al cielo,
     Eb5
y no puedo arrepentirme de este amor.

VERSO1:
G5                                       Bb5
No me arrepiento de este amor, aunque me cueste el corazón;
           F5                              G5
amar es un milagro y yo te amé, como nunca jamás lo imaginé.
                                Bb5
Quiero arrancarme de tu piel, de   tu mirada de tu ser,
                 F5                             G5
yo siento que la vida se nos va y que el día de hoy no vuelve mas.

INTERLUDE
INTRO
E--------------------------------------------------------------------------------------------
B--------------------------------------------------------------------------------------------
G-0-2-3-3-2-3-2-0-0---2-2-3-7-7-7-5-5-7-7---7-7-8-5-5-5-3-3-3-2-2-2—--5-5-7-3-3-3-2-2-2-0-0-0
D--------------------------------------------------------------------------------------------
A--------------------------------------------------------------------------------------------
e--------------------------------------------------------------------------------------------

VERSO2:
 Bb5                            F5
Después de cerrar la puerta, nuestra cama espera abierta,
    Eb5                    Bb5  F5
la locura apasionada del amoooo-oooor.
           Bb5                          F5
Y entre un te quiero y te quiero, vamos remontando al cielo,
     Eb5
y no puedo arrepentirme de este amor.

VERSO1:
G5                                       Bb5
No me arrepiento de este amor, aunque me cueste el corazón;
           F5                              G5
amar es un milagro y yo te amé, como nunca jamás lo imaginé.
                                Bb5
Quiero arrancarme de tu piel, de   tu mirada de tu ser,
                 F5                             G5
yo siento que la vida se nos va y que el día de hoy no vuelve mas.

INTERLUDE2
E|----------------------------------------------------|
B|----------------------------------------------------|
G|------------------3-3-3-3-3-3-3-3-------------------|
D|-5-5-5-5-5-5-5-5--3-3-3-3-3-3-3-3--3-3-3-3-3-3-3-3--|
A|-5-5-5-5-5-5-5-5--1-1-1-1-1-1-1-1--3-3-3-3-3-3-3-3--|
e|-3-3-3-3-3-3-3-3-------------------1-1-1-1-1-1-1-1--|
 pm.................................................

Fuente original: LaCuerda
Colaborador original: erik de jesus [[email protected]]
Aviso: Este fichero es trabajo propio de su transcriptor y representa su interpretación personal de la canción. El material contenido en esta página es para exclusivo uso privado, por lo que se prohibe su reproducción o retransmisión, así como su uso para fines comerciales.

Califica esta canción


Comentarios en Facebook