Acordes y tablaturas para guitarra

Acordes y Tablaturas
Usuario: Password:

Buscar:
Acordes y Tablaturas >> Letra M >> Acordes de Mana >> Mariposa traicionera (7)
Tablatura de Mariposa traicionera, Mana

Mariposa traicionera (7)

Mana






INTRO:
    Fm           D#       C#       G#
e|--8--8--8--8---6-6-6-6--4-4-4-4--4-4-4-4--|
B|--9--9--9--9---8-8-8-8--6-6-6-6--4-4-4-4--|
G|--10-10-10-10--8-8-8-8--6-6-6-6--5-5-5-5--|
D|--10-10-10-10--8-8-8-8--6-6-6-6--6-6-6-6--|
A|------------------------------------------|
E|------------------------------------------|

e|--------------8-8-8----8----6----|
B|--9--9--9--9--9-9-9-9--9-9--8-8--|
G|--10-10-10-10-------10---10---8--|
D|---------------------------------|
A|---------------------------------|
E|---------------------------------|

e|----------6-6-6---6---4----|
B|--8-8-8-8-8-8-8-8-8-8-6-6--|
G|--8-8-8-8-------8---8---6--|
D|---------------------------|
A|---------------------------|
E|---------------------------|

e|---------------------4------|
B|-----6---6---6---6-6-6-6-4--|
G|--/6---6---6---6---6---6-5--|
D|----------------------------|
A|----------------------------|
E|----------------------------|

RIFF 1:
e|---------------|
B|---------------|
G|---------------|
D|--5/6-5-3-1-3--|
A|---------------|
E|---------------|

Fm                D#
Eres como una mariposa
                                  C#
vuelas y te posas vas de boca en boca
                              G#
fácil y ligera de quien te provoca

Fm                      D#
Yo soy ratón de tu ratonera
                             C#
trampa que no mata pero no libera
                    G#
vivo muriendo prisionero

C#   D#         G#
Mariposa traicionera
            Fm
(todo se lo lleva el viento)
C#   D#        C
mariposa no regreso

F
Ay mariposa de amor, mi mariposa de amor
                 C
ya no regreso contigo

Gm
Ay mariposa de amor, mi mariposa de amor
                   F
nunca jamás junto a ti

F
Vuela amor, vuela dolor
F7                  A#
y no regreses a un lado
                   F
ya vete de flor en flor
    C               F
seduciendo a los pistilos

A#                F
Y vuela cerca del sol
          C                 F
pa que sientas lo que es dolor

INTRO
RIFF 1

Fm                    D#
Ay mujer cómo haces daño
                                  C#
pasan los minutos cual si fueran años
                           G#
mira estos celos me están matando

Fm                 D#
Ay mujer que fácil eres
                               C#
abres tus alitas muslos de colores
                       G#
donde se posan tus sabores

C#   D#         G#
Mariposa traicionera
            Fm
(todo se lo lleva el viento)
C#   D#        C
mariposa no regreso

F
Ay mariposa de amor, mi mariposa de amor
                 C
ya no regreso contigo

Gm
Ay mariposa de amor, mi mariposa de amor
                   F
nunca jamás junto a ti

F
Vuela amor, vuela dolor
F7                      A#
que tengas suerte en tu vida
                F
ay, ay, ay, ay, ay dolor
C                   F
yo te lloré todo un río

A#              F
ay, ay, ay, ay, ay amor
C                F
tú te me vas a volar

INTRO
RIFF 1

TERMINA EN Fm

Para cualquier aclaración, duda o comentario,
ahi está mi correo...

*************************************************
Trancripcion de Gerardo Vazquez CUBOS
([email protected])

Fuente original: LaCuerda
Colaborador original: Gerardo Vazquez Cubos [[email protected]]

Que te parecio? Calificalo con estrellas!!

Rating: 7.0/10 (903 votos)

Este fichero es trabajo propio de su transcriptor y representa su interpretación personal de la canción. El material contenido en esta página es para exclusivo uso privado, por lo que se prohibe su reproducción o retransmisión, así como su uso para fines comerciales.


Deja tus comentarios:

Letras de Mana
Letras de canciones | Musica Independiente